Cifra Club

Aprenda

Johnny B. Goode

Peter Tosh

Cifra: Principal (violão e guitarra)
Tom: D
Intro: Em D (4x) G D

E|------------------------------------|------------| 
B|------------------------------------|------------| 
G|------------------------------------|------------| 
D|------------------------------------|--5---4-----| 
A|-7-7-----7-7--------7-7-----7-7-----|--------5---| 
E|-----7-7----------------7-7-----7-5-|------------| 
                                  (2x) 


Verse: 

E|-------------------------------------------------| 
B|-------------------------------------------------| 
G|-------------------------------------------------| 
D|-------------------------------------------------| 
A|-----7------7------5-5-5-------7------7----------| 
E|-0-7----0-7----0-5---------0-7----0-7----0-5-5-5-| (2x) 

Chorus: 

E|------------------------------------| 
B|------------------------------------| 
G|------------------------------------| 
D|------------------------------------| 
A|-7-7-----7-7--------7-7-----7-7-----| 
E|-----7-7----------------7-7-----7-5-| 
                                  (2x) 
(Em   D)

Deep down in jamaica close to mandeville   
Back up in the woods on top of a hill   
There stood an old hut made of earth and wood   
Where lived a country boy named johnny b goode   
He never learned to read and a write so well   
But he could play his guitar like ringing a bell yell   

refrão:  
I say go(go Johnny) Johnny B. Goode tonight yeah
I say go(go Johnny) Johny B. Goode

E|--------------------------| 
B|-15-----------------------| 
G|-14b16r14-12----12--------| 
D|-------------14-----14~~--| 
A|--------------------------| 
E|--------------------------| 


He used to carry his guitar in a gunny sack   
Sitting in a tree in the railroad track   
Old engineer in the train sitting in the shade   
Strummin' with the rhythm that them drivers made   
People passing by would stop and say   
Oh my oh my what the boy can play  
 

E|--------------------------| 
B|-15-----------------------| 
G|-14b16r14-12----12--------| 
D|-------------14-----14~~--| 
A|--------------------------| 
E|--------------------------| 


refrão  

E|------------------------------------------------| 
B|-15-------------------------------15b17r15~~----| 
G|-14b16r14p12-14-12-14-12~~----------------------| 
D|------------------------------------------------| 
A|------------------------------------------------| 
E|------------------------------------------------| 


Solo: Em D (2x) A G

E|---------12-------12-------12-------12-------12--------| 
B|-15b17~~----15b17----15b17----15b17----15b17----15b17--| 
G|-------------------------------------------------------| 
D|-------------------------------------------------------| 
A|-------------------------------------------------------| 
E|-------------------------------------------------------| 

E|-12---------------------------------12-----------------| 
B|----15b17r15-12-------------15b17~~----15-12-----------| 
G|----------------14b16r14-12------------------15-14-12--| 
D|-------------------------------------------------------| 
A|-------------------------------------------------------| 
E|-------------------------------------------------------| 

E|------------------------12-15b17-15b17-15-12---------12-14-15--| 
B|---------------------------------------------15b17~~-----------| 
G|-14b16r14p12-14-12~~-------------------------------------------| 
D|---------------------------------------------------------------| 
A|---------------------------------------------------------------| 
E|---------------------------------------------------------------| 

E|-14-12h14p12----12---------12----------------------------------| 
B|-------------15----15b17------15-12----------------------------| 
G|------------------------------------14b16r14p12-14b16-14-12~~--| 
D|---------------------------------------------------------------| 
A|---------------------------------------------------------------| 
E|---------------------------------------------------------------| 

E|-------12-12-|----------12----------|-15p12----|-15b17-15-12---| 
B|-------12-12-|-15b17~~-----15-12-12-|-------12-|---------------| 
G|-14b16-------|----------------------|----------|---------------| 
D|-------------|----------------------|----------|---------------| 
A|-------------|----------------------|----------|---------------| 
E|-------------|----------------------|----------|---------------| 
           (8x)                             (5x) 

E|-15b17r15-12-------12----------------------------------| 
B|-------------15b17----15-12----------------------------| 
G|----------------------------14b15-14-12-12h14~~--12~~--| 
D|-------------------------------------------------------| 
A|-------------------------------------------------------| 
E|-------------------------------------------------------| 


Mama said son you gotta be a man   
You gotta be the leader of a reggae band   
People coming in from miles around   
To hear you play until the sun goes down   
Boy someday your name will be in the lights   
Saying Johnny B. Goode tonight


Solo: 

E|-15-15-15--15-15--15-15-15-15-12-12-12-15-12-12--15-12-12---| 
B|------------------------------------------------------------| 
G|------------------------------------------------------------| 
D|------------------------------------------------------------| 
A|------------------------------------------------------------| 
E|------------------------------------------------------------| 

E|--------12-12---------------------|--------------------| 
B|--------12-12-15-12---------------|--------------------| 
G|--14b16-------------14b15-14-12~~-|-/15-15-15-15-15-15-| 
D|----------------------------------|-/16-16-16-16-16-16-| 
A|----------------------------------|--------------------| 
E|----------------------------------|--------------------| 
                                                     (5x) 

E|----------------------------------------------------------| 
B|------------12----------12-------------------------15-17--| 
G|-14~~-12-14----14-12-14----12h14-12----------14/16--------| 
D|-------------------------------------12h14----------------| 
A|----------------------------------------------------------| 
E|----------------------------------------------------------| 

E|--15-17b19-17b19--(17b19)r17-15-17-15-17b19--(17b19)r17-15-17-17b19-| 
B|--------------------------------------------------------------------| 
G|--------------------------------------------------------------------| 
D|--------------------------------------------------------------------| 
A|--------------------------------------------------------------------| 
E|--------------------------------------------------------------------| 

E|-17-15b17r15-12-15b-15b-12~~\------0-0--0-| 
B|-----------------------------------0-0--0-| 
G|-------------------------------2b4--------| 
D|------------------------------------------| 
A|------------------------------------------| 
E|------------------------------------------|
Composição de Chuck Berry
Colaboração e revisão:
  • Claudinho Pacheco
12.928 exibições
    • ½ Tom
    • A
    • Bb
    • B
    • C
    • Db
    • D
    • Eb
    • E
    • F
    • F#
    • G
    • Ab
  • Adicionar à lista

    0 comentários

    Mostrar mais comentários

    Conseguiu tocar?

    1 Tocaram 0 Ainda não

    Grave um vídeo tocando Johnny B. Goode e mande pra gente!

    00:00 / 00:00
    outros vídeos desta música
    repetir qualidade Automático
    Outros vídeos desta música
    00:00 / 00:00
    Automático

    Cifra Club Pro

    Aproveite o Cifra Club com benefícios exclusivos e sem anúncios
    7 dias grátis
    Cifra Club Pro
    Aproveite o Cifra Club com benefícios exclusivos e sem anúncios
    7 dias grátis
    OK