Cifra Club

Aprenda

Johnny B. Goode

Peter Tosh

Tab de baixo: Principal
Peter Tosh - Johnny B. Good - Tab Bass


G|--------------------------------------------------------------------| 
D|--------------------------------------------------------------------| 
A|-7-7-----7-7---7-7-----7-7-------7-7-----7-7--7-7-----7-7/--10-9----| 
E|-----7-7-----------7-7-----7-5\-------7-7----------7-7-----------10-| 

8X
G|-------------------------------------------------| 
D|-------------------------------------------------| 
A|-----7------7------5-5-5------7------7-----------| 
E|-0-7----0-7----0-5--------0-7----0-7----0-2--5-5-| 

G|--------------------------------------------------------------| 
D|--------------------------------------------------------------| 
A|-7-7-----7-7---7-7-----7-7-------7-7-----7-7--7-7-----7-7-----| 
E|-----7-7-----------7-7-----7-5-------7-7----------7-7-----7-5-| 

6X
G|-------------------------------------------------| 
D|-------------------------------------------------| 
A|-----7------7------5-5-5------7------7-----------| 
E|-0-7----0-7----0-5--------0-7----0-7----0-2--5-5-| 

G|--------------------------------------------------------------| 
D|--------------------------------------------------------------| 
A|-7-7-----7-7---7-7-----7-7-------7-7-----7-7--7-7-----7-7-----| 
E|-----7-7-----------7-7-----7-5-------7-7----------7-7-----7-5-| 

G|-----------------------------| 
D|-------5-4-----------7---5---| 
A|-7---7-----7-5-7---7---7---5-| 
E|---7-------------7-----------|

G|-------------------------------------------| 
D|-----5-4-------------7---5-------5-4-------| 
A|-7-------7-5---7---7---7---5-7-------7-5---| 
E|---7---------7---7-------------7---------7-|

G|----------------------------------------| 
D|-------7---5--------5-4-----------------| 
A|-7---7---7---5--7-------7-5---7---7-----| 
E|---7--------------7---------7---7---3-5-|

6X
G|-------------------------------------------------| 
D|-------------------------------------------------| 
A|-----7------7------5-5-5------7------7-----------| 
E|-0-7----0-7----0-5--------0-7----0-7----0-2--5-5-| 

G|--------------------------------------------------------------| 
D|--------------------------------------------------------------| 
A|-7-7-----7-7---7-7-----7-7-------7-7-----7-7--7-7-----7-7-----| 
E|-----7-7-----------7-7-----7-5-------7-7----------7-7-----7-5-| 

G|-----------------------------| 
D|-----5-4-------------7---5---| 
A|-7-------7-5---7---7---7---5-| 
E|---7---------7---7-----------|

G|-------------------------------------------| 
D|-----5-4-------------7---5-------5-4-------| 
A|-7-------7-5---7---7---7---5-7-------7-5---| 
E|---7---------7---7-------------7---------7-|

G|----------------------------------------------------------|
D|-------7---5--------5-4-------------7---5-------5-4-------|
A|-7---7---7---5--7-------7-5---7---7---7---5-7-------7-5---|
E|---7--------------7---------7---7-------------7---------7-|
Composição de Chuck Berry
Colaboração e revisão:
  • Elias Queiroz
  • Everton Damascena
550 exibições

0 comentários

Mostrar mais comentários

Conseguiu tocar?

2 Tocaram 0 Ainda não

Grave um vídeo tocando Johnny B. Goode e mande pra gente!

00:00 / 00:00
outros vídeos desta música
repetir qualidade Automático
Outros vídeos desta música
00:00 / 00:00
Automático

Cifra Club Pro

Aproveite o Cifra Club com benefícios exclusivos e sem anúncios
7 dias grátis
Cifra Club Pro
Aproveite o Cifra Club com benefícios exclusivos e sem anúncios
7 dias grátis
OK