Cifra Club

Anything

Pfr

Cifra: Principal (violão e guitarra)
Selo Cifra Club: esta cifra foi revisada para atender aos critérios oficiais da nossa Equipe de Qualidade.
tom: A
E|----------------------------------------------------------------------------|
B|----------------------------------------------------------------------------|
G|----------------------------------------------------------------------------|
D|-7-7-7--2-2-2-2--3-3-3-3-3-3-3-3--4-4-4-4-4-4-4-4--5-5-5-5-5-5-5-5----------|
A|-0-0-0--0-0-0-0--0-0-0-0-0-0-0-0--0-0-0-0-0-0-0-0--0-0-0-0-0-0-0-0----------|
E|----------------------------------------------------------------------------|

[Verse 1]
Gtr 1 dist
Gtr 2 clean
(Throughout song, both guitars play chords except Riff 1.  For the
chorus, Gtr 1 plays power chords.  Gtr 1 always dist
except solos.  Flanger only on intro.)
A
Nothing I can say
Amaj7
Will matter anyway
A6   
Just a vain display
Riff 1
     G
With me in the middle

  Riff 1
  Gtr 1 only
E|----------------------------------------------------------------------------|
B|----------------------------------------------------------------------------|
G|----------------------------------------------------------------------------|
D|----------------------------------------------------------------------------|
A|-4--5--7---5---4-7----------------------------------------------------------|
E|----------------------------------------------------------------------------|

[Verse 2]
A
No more empty words
Amaj7
Will anymore be heard
A6  
All my rhymes and verbs
Riff 1
 G
Mean very little


[Pre-Chorus]
        Bm
Like whispers thrown against the wind
G               E      A
Empty Phrases caving in


[Chorus]
                    F#m           A
It doesn't mean anything without you
              F#m          C#m
Just a nice melody without you
               Bm       E
Without Your Spirit to sing
C#m                 Bm             E
Of the hope and the joy that You bring
Bm                           D   E
Without You it doesn't mean anything

  Occasional chorus fill
E|----------------------------------------------------------------------------|
B|-5--7--5--------------------------------------------------------------------|
G|----------------------------------------------------------------------------|
D|----------------------------------------------------------------------------|
A|----------------------------------------------------------------------------|
E|----------------------------------------------------------------------------|


[Solo]
E|----------------------------------------------------------------------------|
B|----------------------------------------------------------------------------|
G|----------------------------------------------------------------------------|
D|----------------------------------------------------------------------------|
A|-0----8--------0--0----9------0--0--0--10--9--7--9-7--5--4------------------|
E|----------------------------------------------------------------------------|

E|-------14-------------------------------------------------------------------|
B|-14-14----14-12v-10-12------------------------------------------------------|
G|-----------------------11vvvv\9/11\9----------------------------------------|
D|----------------------------------------------------------------------------|
A|----------------------------------------------------------------------------|
E|----------------------------------------------------------------------------|


E|---------14-----------------------------------------------------------------|
B|-14--14------14--12v----12h14h15vvvv--\-------------------------------------|
G|----------------------------------------------------------------------------|
D|----------------------------------------------------------------------------|
A|----------------------------------------------------------------------------|
E|----------------------------------------------------------------------------|


[Verse 3]
A
Nothing I'll ever do
Amaj7
Could ever hold a candle to
A6   
The love displayed when You
Riff 1
Said You forgave me

[Verse 4]
A
And what I know of love
Amaj7
Is that I'm not deserving of
A6   
One You called Your Son
Riff 1
One sent to save me


[Pre-Chorus]
      Bm
Like love holding the hand of hate
      G                E  A
You choose to love me anyway


[Chorus]
                  F#m              A
It doesn't mean anything without you
                F#m           C#m
Just words that I say without You
               Bm       E
Without Your Spirit to sing
C#m                     Bm            E
Of this change of the heart that You bring
Bm               D           E
Without You it doesn't mean anything

[Ending]
guitar plays C Am Em G
bass plays C-A-E-G (eighth notes)
guitar plays outro solo

[Outro]
E|----------------------------------------------------------------------------|
B|------------13--12----13--10------------------------------------------------|
G|-----9--12----------------------9/12~~~~--14------12------------------------|
D|-10-------------------------------------------14----------------------------|
A|----------------------------------------------------------------------------|
E|----------------------------------------------------------------------------|

E|----------------------------------------------------------------------------|
B|------------13--12----13--10----12--12~~~~----------------------------------|
G|-----9--12------------------------------------------------------------------|
D|-10-------------------------------------------------------------------------|
A|----------------------------------------------------------------------------|
E|----------------------------------------------------------------------------|

  Chords
   A  Amaj7 A6    Bm   D    E    C#m  F#m
E|----------------2----2----0----4----2---------------------------------------|
B|-2----2----7----3----3----0----5----2---------------------------------------|
G|-2----1----6----4----2----1----6----2---------------------------------------|
D|-2----2----7----4----0----2----6----4---------------------------------------|
A|-0----0----0----2---------2----4----4---------------------------------------|
E|--------------------------0---------2---------------------------------------|



************************************

| /  Slide up
| \  Slide down
| h  Hammer-on
| v  Vibrato
Outros vídeos desta música
    7 exibições
      • ½ Tom
      • A
      • Bb
      • B
      • C
      • Db
      • D
      • Eb
      • E
      • F
      • F#
      • G
      • Ab
    • Adicionar à lista

    Afinação da cifra

    Afinador online

      0 comentários

      Ver todos os comentários

      Entre para o Cifra Club PRO

      Tenha acesso a benefícios exclusivos no App e no Site

      • Chega de anúncios

      • Badges exclusivas

      • Mais recursos no app do Afinador

      • Atendimento Prioritário

      • Aumente seu limite de lista

      • Ajude a produzir mais conteúdo

      Cifra Club Pro

      Aproveite o Cifra Club com benefícios exclusivos e sem anúncios
      Cifra Club Pro
      Aproveite o Cifra Club com benefícios exclusivos e sem anúncios
      Ops (: Contenido disponible sólo en portugués.
      OK