Cifra Club

Meu Universo

PG

Cifra: Principal (violão e guitarra)
tom: G
Intro: G  C9  G  C9  D

[Tab - Solo Intro]

E|------------------------------------------|
B|------------------------------------------|
G|-----0-2---2---4---2---0------------------|
D|---0-----0---0---0---0--------------------|
A|------------------------------------------|
E|-3----------------------------------------|

E|------------------------------------------|
B|------------------------------------------|
G|-------0-2---2---4------------------------|
D|-----0-----0---0--------------------------|
A|-0h3--------------------------------------|
E|------------------------------------------|

E|------------------------------------------|
B|------------------------------------------|
G|-----0-2---2---4---2---0------------------|
D|---0-----0---0---0---0--------------------|
A|------------------------------------------|
E|-3----------------------------------------|

E|------------------------------------------|
B|---------------------3--------------------|
G|-4-5-5/7-5-4h5p4\2-----2------------------|
D|-------------------0----------------------|
A|------------------------------------------|
E|------------------------------------------|

[Primeira Parte]

                  G
Que sejas meu universo
           C9                 D4/F#  G
Não quero dar-te só um pouco do meu tempo
           Am7            Am7/G      D
Não quero dar-te um dia apenas da semana
                  G
Que sejas meu universo
           C9                 D4/F#  G
Não quero dar-te as palavras como gotas
           Am7                Am7/G            D
Quero que saia um dilúvio de bençãos da minha boca

[Refrão]

D4/E            D4/F#  G
     Que sejas meu universo
           C9                D4/F#  G
Que sejas tudo o que sinto e o que penso
           C9                      Am7
Que de manhã seja o primeiro pensamento
        Am7/G       D
E a luz em minha janela

D4/E            D4/F#  G
     Que sejas meu universo
            C9                  D4/F# G
Que enchas cada um dos meus pensa____mentos
              C9                           Am7
Que a tua presença e o teu poder sejam alimento
                Am7/G D   D/F#
Jesus este é o meu desejo

[Segunda Parte]

                  G
Que sejas meu universo
           C9                  D4/F#   G
Não quero dar-te só uma parte dos meus anos
          Am7                 Am7/G     D
Te quero dono do meu tempo e dos meus planos

                  G
Que sejas meu universo
          C9                    D4/F#  G
Não quero a minha vontade quero agra__dar-te
        Am7             Am7/G          D
E cada sonho que há em mim quero entregar-te

[Refrão]

D4/E            D4/F#  G
     Que sejas meu universo
           C9                D4/F#  G
Que sejas tudo o que sinto e o que penso
           C9                      Am7
Que de manhã seja o primeiro pensamento
        Am7/G       D
E a luz em minha janela

D4/E            D4/F#  G
     Que sejas meu universo
            C9                  D4/F# G
Que enchas cada um dos meus pensa____mentos
              C9                           Am7
Que a tua presença e o teu poder sejam alimento
                Am7/G D   D/F#
Jesus este é o meu desejo

[Solo] D4/E  D4/F#  G  Am  G/B
       C9  D4/F#  G  Am  G/B
       C9  Am7  Am7/G  D

[Refrão]

D4/E            D4/F#  G
     Que sejas meu universo
           C9                D4/F#  G
Que sejas tudo o que sinto e o que penso
           C9                      Am7
Que de manhã seja o primeiro pensamento
        Am7/G       D
E a luz em minha janela

D4/E            D4/F#  G    Am  G/B
     Que sejas meu universo
            C9                  D4/F# G     Am  G/B
Que enchas cada um dos meus pensa____mentos
              C9                           Am7
Que a tua presença e o teu poder sejam alimento
                Am7/G D   C9
Jesus este é o meu desejo

                  G     C9
Que sejas meu universo
         D4/F#         G     C9
Que sejas      meu universo
         D4/F#         G     C9
Que sejas      meu universo
         D4/F#         G   
00:00 / 00:00
Outros vídeos desta música
Repetir
Outros vídeos desta música
Composição de JESUS A. ROMERO / PG
1.876.654 exibições
    • ½ Tom
    • A
    • Bb
    • B
    • C
    • Db
    • D
    • Eb
    • E
    • F
    • F#
    • G
    • Ab
  • Adicionar à lista

    0 comentários

    Ver todos os comentários

    Entre para oCifra Club PRO

    Tenha acesso a benefícios exclusivos no App e no Site

    • Chega de anúncios

    • Prioridade de compra em lançamentos

    • Mais recursos no app do Afinador

    • Atendimento Prioritário

    • Descontos nos produtos Cifra Club

    • Ajude a produzir mais conteúdo

    00:00 / 00:00
    Capítulos
    • Início
    • Tocando dedilhado da introdução
    • Explicando dedilhado da introdução
    • Acordes da primeira parte
    • Tocando primeira parte#01
    • Ritmo primeira parte#01
    • Tocando primeira parte#02
    • Ritmo primeira parte#02
    • Acordes do refrão
    • Tocando refrão
    • Passagem do terceiro refrão
    • Ritmo da passagem do terceiro refrão
    • Acordes da base do solo
    • Tocando base do solo
    • Encerramento

    Cifra Club Pro

    Aproveite o Cifra Club com benefícios exclusivos e sem anúncios
    Cifra Club Pro
    Aproveite o Cifra Club com benefícios exclusivos e sem anúncios
    OK