Cifra Club

Meu Universo

PG

Cifra: Solo
exibições 59.874
Tom: G
E|--------------------------------------------------------------------------------|
B|-----3/8-----8--10-------10b12--10--8--7---8------------------------------------|
G|--------7----------7------------------------------------------------------------|
D|--------------------------------------------------------------------------------|
A|--------------------------------------------------------------------------------|
E|--------------------------------------------------------------------------------|

E|--------------------------------------------------------------------------------|
B|------8---10---12b13---10--8--10b12---8-----------------------10--12--10--------|
G|---7---------------------------------------------------11-12--------------12~---|
D|----------------------------------------------------12--------------------------|
A|--------------------------------------------------------------------------------|
E|--------------------------------------------------------------------------------|

E|--------------------------------------------------------------------------------|
B|------------------------------------8h10--8----------8h10--8--10b12---10--8-10--|
G|-----9--7—7h9----7--------------------------9--7--------------------------------|
D|-----------------7h9--7---------------------------------------------------------|
A|-------------------------9----5-7-5---------------------------------------------|
E|--------------------------------------------------------------------------------|

E|--------------------------------------------------------------------------------|
B|-----4/8--7--------8/10----10b12--10----8---------------------------------------|
G|-------------9--7---------------------------------------------------------------|
D|--------------------------------------------------------------------------------|
A|--------------------------------------------------------------------------------|
E|--------------------------------------------------------------------------------|
Acordes para:
    Colaboração e revisão:

    0 comentários

      mostrar mais comentários
      00:00 / 00:00
      outros vídeos desta música
      repetirqualidadeautomática
      Outro vídeos desta música
        00:00 / 00:00
        automática
        Capítulos
        • Início
        • Tocando dedilhado da introdução
        • Explicando dedilhado da introdução
        • Acordes da primeira parte
        • Tocando primeira parte#01
        • Ritmo primeira parte#01
        • Tocando primeira parte#02
        • Ritmo primeira parte#02
        • Acordes do refrão
        • Tocando refrão
        • Passagem do terceiro refrão
        • Ritmo da passagem do terceiro refrão
        • Acordes da base do solo
        • Tocando base do solo
        • Encerramento
        OK