Cifra Club

Reflexão

PG

Cifra: Principal (violão e guitarra)
tom: C
(afinação em D)

(intro)

          Gm7/9                         Eb                          Gm7/9
D|---------------------------|---------------------------|--------------------------|--
A|--------------1------------|---------------1-----------|-------------1------------|--
F|---------4-------4------2--|---------4--------4-----4--|--------4-------4------4--|--
C|------2-----2-------2------|-----2------2--------2-----|-----2----2--------2------|--
G|---0-----------------------|---------------------------|--0-----------------------|--
D|---------------------------|-1-------------------------|--------------------------|--
          F                         Gm7/9                       Eb
D|--------------------|---------------------------|------------------------------|--
A|--------------------|---------------1-----------|-----------------1------------|--
F|--------0--------0--|---------4--------4-----4--|-----------4--------4------4--|--
C|-----4-------4------|------2-----2--------2-----|-------2------2--------2------|--
G|---3------5---------|---0-----------------------|------------------------------|--
D|--------------------|---------------------------|---1--------------------------|--
                    F
D|---------------0------------------5----|--
A|-----------3------3---------------5----|--
F|--------2-------------2-----------2----|--
C|---------------------------------------|--
G|---------------------------------------|--
D|---3-----------------------------------|--

(riff acompamha a letra até o refrão)

( Gm7/9  Eb  Gm7/9 F     Gm7/9  Eb  F )
Veio em minha direção, eu esperava por você
Trazer uma mensagem do Deus de Abraão

(todos os instrumentos )
( Gm7/9  Eb  Gm7/9  F      Gm7/9  Eb F )
Se você voltar atrás e desistir
Nunca irá saber o que eu tenho pra você

(refrão)
Gm        C  Eb           F
Estar aqui e arrepender
Gm            C       Eb Eb D Eb Eb D Eb F
Falar do teu amor e à todos dizer
Gm          C      Eb                  F
Abra o coração e ouça a voz de Deus
Gm             C          Eb Eb D Eb Eb D Eb F
Para toda eternidade com Cristo vou viver

(teclado) C7M D7m E7m F

( Gm7/9 Eb Gm7/9 F     Gm7/9 Eb F )
Em meio à multidão você olhou pra mim
Aonde estão os que te acusam nesta hora
Eu não vim pra te acusar levante os olhos até mim
Siga em frente, não peques mais

(refrão)

(solo base) G C Eb F
            G C Eb Eb D Eb Eb D Eb F

G        C   Eb           F
Estar aqui e arrepender
G           C       Eb Eb D Eb Eb D Eb F
Falar do teu amor e à todos dizer
G          C      Eb                 F
Abra o coração e ouça a voz de Deus
G            C           Eb Eb D Eb Eb D Eb F
Para toda eternidadae com Cristo vou viver
Eb Eb D Eb Eb D Eb F  Eb C
   Com Cristo vou viver
00:00 / 00:00
Outros vídeos desta música
Repetir
Outros vídeos desta música
Composição de Johnny Mazza / PG
Colaboração e revisão:
  • Lincoln Ribeiro
  • Edvandro Reis
21.848 exibições
    • ½ Tom
    • A
    • Bb
    • B
    • C
    • Db
    • D
    • Eb
    • E
    • F
    • F#
    • G
    • Ab
  • Adicionar à lista

    0 comentários

    Ver todos os comentários

    Entre para oCifra Club PRO

    Tenha acesso a benefícios exclusivos no App e no Site

    • Chega de anúncios

    • Prioridade de compra em lançamentos

    • Mais recursos no app do Afinador

    • Atendimento Prioritário

    • Descontos nos produtos Cifra Club

    • Ajude a produzir mais conteúdo

    00:00 / 00:00

    Cifra Club Pro

    Aproveite o Cifra Club com benefícios exclusivos e sem anúncios
    Cifra Club Pro
    Aproveite o Cifra Club com benefícios exclusivos e sem anúncios
    OK