Cifra Club

Sábia Loucura

PG

Cifra: Principal (violão e guitarra)
tom: Bb (forma dos acordes no tom de C) Afinação: D G C F A D
D|-------------------|
A|-------------------|
F|-------------------|
C|--2-2-2-2----------|
G|--2-2-2-2----------|
D|--0-0-0-0--2h3p2---|\
                     (3x)
D|-------------------|/
A|-------------------|
F|------0------0-----|
C|----2------4-------|
G|--3------5---------|
D|-------------------|

D                              F G
Como conhecer se nem mesmo se vê
D                                           F G
Tantas palavras afirmam mas só os loucos creem
D                            F G
Não te vejo mas em tudo me olhas
D                            F         G
Não te toco mas sou sempre tocado por Ti

[Riff]    (Guitarra Solo) (1ª Parte)
D|-------------------------------|
A|-------------------------------|
F|-------------------------------|
C|-------------------------------|
G|--0-0-3-0-3-5-3-2-0-2-3-2-0-0--|
D|-------------------------------|

D|---------------------------------|
A|---------------------------------|
F|---------------------------------|
C|------------------5-4-3-2--------|
G|--3-0-3-5-3-2-0---5-4-3-2--------|
D|------------------3-2-1-0--------|
                          (2ª Parte)
D|-------------------|      |-------------------|
A|-------------------|      |-------------------|
F|-------------------|      |-------------------|
C|--2-2-2-2----------|      |--------------7----|
G|--2-2-2-2----------|      |--------------7----|
D|--0-0-0-0--2h3p2---|/(3x) |--0-0-1-2-3-4-5----|

         G                 C            D      ou Riff(1ª e 2ª Partes)
Em Deus aprendi que até o mas sábio se cala
G            C                     D       ou Riff(1ª Parte)
Em tua presença não existem palavras
C            G           C             F
Nem Sempre te entendo mais nunca me falhas

|-------------------------|
|-------------------------|
|-------------------------|
|-------------------2-----|
|-------------------2-----|
|---3-2-0-3-2-0-3-2-0-----|

D    C    D     C         D          C
A sabedoria de Deus e loucura pro homem
D
Sábio louco o homem sem Deus
D     C         D     C
Louco sou por acreditar
     D          C          F E Eb
No milagre de Cristo ao ressuscitar
00:00 / 00:00
Outros vídeos desta música
Repetir
Outros vídeos desta música
Composição de Johnny Mazza / PG
Colaboração e revisão:
29.634 exibições
    • ½ Tom
    • A
    • Bb
    • B
    • C
    • Db
    • D
    • Eb
    • E
    • F
    • F#
    • G
    • Ab
  • Adicionar à lista

    0 comentários

    Ver todos os comentários

    Entre para oCifra Club PRO

    Tenha acesso a benefícios exclusivos no App e no Site

    • Chega de anúncios

    • Prioridade de compra em lançamentos

    • Mais recursos no app do Afinador

    • Atendimento Prioritário

    • Descontos nos produtos Cifra Club

    • Ajude a produzir mais conteúdo

    00:00 / 00:00

    Cifra Club Pro

    Aproveite o Cifra Club com benefícios exclusivos e sem anúncios
    Cifra Club Pro
    Aproveite o Cifra Club com benefícios exclusivos e sem anúncios
    OK