Cifra Club

Santo

PG

Cifra: Principal (violão e guitarra)
tom: F
Obs: a afinação não é E-A-D-G-B-E e sim é D-A-D-G-B-E

Intro:
E|--------------||---------------||
B|---------6----||-----------8-6-||
G|-----5-----7~-||-------5-------||
D|-7-7---7------||-----7--7------||
A|--------------||---------------||
D|--------------||---------------||

E|-------------------------------------------------------------------||
B|-----------------6------------10/13/10---10------------------------||
G|-------------5-----8~------------------12--12-10-12-10---10--------||
D|-3-5-----7-7---7---------------------------------------12--12-10-12||
A|-3-5---------------------------------------------------------------||
D|-1-3---------------------------------------------------------------||

E|-----------------------------------------------------------||
B|-----------------------------------------------------------||
G|-------5/7/5-----5/7/5---3--5--------5/7/5-----5/7/5-------||
D|-------5/7/5-----5/7/5---3--5--------5/7/5-----5/7/5-------||
A|-------------------------1--3------------------------------||
D|-0-0-0--------8~---------------0-0-0--------8~-------------||

E|----------------------||
B|----------------------||
G|----------------------||
D|------3---------------||
A|-0-3-5--5--3-3-3-5----||
D|----------------------||

D5       (D5-C5)           D5 C5
O nosso Deus está entre nós
 Bb5    F5           C5            E|--10------------||
Ele habita na adoração            B|--13~-----------||
D5       (D5-C5)           D5 C5
O nosso Deus vai hoje operar
Bb5       F5        C5
Ele é benigno e santo
D5 Bb5  C5   D5
Santo ,Santo

E|----------------------||
B|----------------------||
G|----------------------||
D|-------3--------------||
A|-3-5-7---5-7-3--------||
D|----------------------||

          Bb5   C5   D5
O nosso Deus é Santo
00:00 / 00:00
Outros vídeos desta música
Repetir
Outros vídeos desta música
Composição de Linvingston Farias
Colaboração e revisão:
73.986 exibições
    • ½ Tom
    • A
    • Bb
    • B
    • C
    • Db
    • D
    • Eb
    • E
    • F
    • F#
    • G
    • Ab
  • Adicionar à lista

    0 comentários

    Ver todos os comentários

    Entre para oCifra Club PRO

    Tenha acesso a benefícios exclusivos no App e no Site

    • Chega de anúncios

    • Prioridade de compra em lançamentos

    • Mais recursos no app do Afinador

    • Atendimento Prioritário

    • Descontos nos produtos Cifra Club

    • Ajude a produzir mais conteúdo

    00:00 / 00:00

    Cifra Club Pro

    Aproveite o Cifra Club com benefícios exclusivos e sem anúncios
    Cifra Club Pro
    Aproveite o Cifra Club com benefícios exclusivos e sem anúncios
    OK