Cifra Club

California

Phantom Planet

Cifra: Principal
exibições 208.910
Tom: E
Intro:
    C#m                C#m                C#m           A    E
E|--------9------9--|--------9----9----|---------9------9-|-----11---|
B|-9--12-----12-----|-9--12-----12-----|-9--12-----12-----|-------12-|
D|------------------|------------------|------------------|----------|
G|------------------|------------------|------------------|----------|
A|------------------|------------------|------------------|----------|
E|------------------|------------------|------------------|----------|
     A             E           A             E
E|--------------------------|-------------------------|--(12)--------|
B|-9--------------------9~--|-9-------------------9~--|---H----------|
D|----11--11--9--9--11------|---11--11--9--9--11------|--------------|
G|--------------------------|-------------------------|--------------|
A|--------------------------|-------------------------|--------------|
E|--------------------------|-------------------------|--------------|

 C#m                                                       A       E
 We've been on the run, driving in the sun, looking out for number one
     A              E                A                E
 California here we come right back where we started from
 C#m                                                             A      E
 hustlers grab your guns, your shadow weights a ton, driving down the 101
      A              E               A                E
 California here we come right back where we started from

      A    E A        E   A
 California   here we come

 C#m                                             A        E
 On the stereo listen as we go, nothing's gonna stop me now
      A              E               A                E
 California here we come right back where we started from
   C#m                                            A             E
 Pedal to the floor, thinking of you more, gotta get us to the show
      A              E               A                E
 California here we come right back where we started from

     A      E A         E A
 California     here we come
     E           A              E A
 California, California here we come

(Intro 2x)

( E9  A9  E7+  A )

     E           F#             A    (paradinha)
 California, California here we come
     E           A              E  A
 California, California here we come
     E           A              E  A
 California, California here we come
     E           A              E  A    C#m
 California, California here we come

0 comentários

    mostrar mais comentários

    Conseguiu tocar?

    38tocaram2ainda não

    Grave um vídeo tocando California e mande pra gente!

    00:00 / 00:00
    outros vídeos desta música
    repetirqualidadeautomática
    Outro vídeos desta música
      00:00 / 00:00
      automática
      OK