Enviar cifraEntrar

Happy

Pharrell Williams

Cifra: Principal
exibições 328.998
Tom: F
Intro: F7

Primeira Parte:

F7
   It might seem crazy
                       Bb  C  Bb
What I’m about to say
F7
   Sunshine she’s here
                   Bb  C  Bb
You can take break
      F7
I’m a    hot air balloon
                       Bb  C  Bb
That could go to space
         F7
With the air, like I don’t care
                 Bb  C  Bb
Baby, by the way

Refrão:

(Because I’m happy)
Db7M             Cm7
     Clap along, if you feel
                       F7
Like a room without a roof

(Because I’m happy)
Db7M             Cm7
     Clap along, if you feel
                        F7
Like happiness is the truth

(Because I’m happy)
Db7M             Cm7
     Clap along, if you know
                      F7
What happiness is to you

(Because I’m happy)
Db7M             Cm7
     Clap along, if you feel
                            F7
Like that’s what you wanna do

Segunda Parte:

Here come bad news
                      Bb  C  Bb
Talking this and that
      F7
Yeah,    give me all you got
                   Bb  C  Bb
Don’t hold me back
      F7
Yeah,    well, I should probably warn you
                  Bb  C  Bb
I’ll be just fine
      F7
Yeah,    no offense to you
                       Bb          C  Bb
Don’t waste your time,    here’s why


Refrão:

(Because I’m happy)
Db7M             Cm7
     Clap along, if you feel
                       F7
Like a room without a roof

(Because I’m happy)
Db7M             Cm7
     Clap along, if you feel
                        F7
Like happiness is the truth

(Because I’m happy)
Db7M             Cm7
     Clap along, if you know
                      F7
What happiness is to you

(Because I’m happy)
Db7M             Cm7
     Clap along, if you feel
                            F7
Like that’s what you wanna do

Terceira Parte:

Happy, bring me down, can't nothin'

Bring me down, my level's too high

Bring me down, can't nothin' bring me down

I said (let me tell you now)

Bring me down, can't nothin'

Bring me down, my level's too high

Bring me down, can't nothin' bring me down

I said

Refrão 2x:

(Because I’m happy)
Db7M             Cm7
     Clap along, if you feel
                       F7
Like a room without a roof

(Because I’m happy)
Db7M             Cm7
     Clap along, if you feel
                        F7
Like happiness is the truth

(Because I’m happy)
Db7M             Cm7
     Clap along, if you know
                      F7
What happiness is to you

(Because I’m happy)
Db7M             Cm7
     Clap along, if you feel
                            F7
Like that’s what you wanna do

Terceira Parte:

Happy, bring me down, can't nothin'

Bring me down, my level's too high

Bring me down, can't nothing bring me down

I said

Refrão 2x:

(Because I’m happy)
Db7M             Cm7
     Clap along, if you feel
                       F7
Like a room without a roof

(Because I’m happy)
Db7M             Cm7
     Clap along, if you feel
                        F7
Like happiness is the truth

(Because I’m happy)
Db7M             Cm7
     Clap along, if you know
                      F7
What happiness is to you

(Because I’m happy)
Db7M             Cm7
     Clap along, if you feel
                            F7
Like that’s what you wanna do

Intro:


  F7
E|-1-1-1-1----------------------------------|
B|-4-4-4-4----------------------------------|
G|-2-2-2-2----------------------------------|
D|------------------------------------------|
A|------------------------------------------|
E|-1-1-1-1----------------------------------|


Primeira Parte:


  F7
E|-1--x-x-x-x-x-----------------------------|
B|-4--x-x-x-x-x-----------------------------|
G|-2--x-x-x-x-x-----------------------------|
D|----x-x-x-x-x-----------------------------|
A|----x-x-x-x-x-----------------------------|
E|-1--x-x-x-x-x-----------------------------|

      ↓ ↑ ↓ ↑

  F7
E|-1--x-x-x-x-x-x---------------------------|
B|-4--x-x-x-x-x-x---------------------------|
G|-2--x-x-x-x-x-x---------------------------|
D|----x-x-x-x-x-x---------------------------|
A|----x-x-x-x-x-x---------------------------|
E|-1--x-x-x-x-x-x---------------------------|

      ↓ ↑ ↓ ↑ ↓ ↑


  F7     Bb      C    Bb
E|---1---0-0--x--3-3--1-1-1-1---------------|
B|---4---3-3--x--5-5--3-3-3-3---------------|
G|---2---3-3--x--5-5--3-3-3-3---------------|
D|---0--------x-----------------------------|
A|-----0-1----x--3----1---------------------|
E|-1----------x-----------------------------|

     ↓                  ↓ ↑ ↓

Refrão:

  Dd7M

E|-4--x-x--4-4--x---------------------------|
B|-6--x-x--6-6--x---------------------------|
G|-5--x-x--5-5--x---------------------------|
D|-6--x-x--6-6--x---------------------------|
A|-4--x-x--4-4--x---------------------------|
E|----x-x-------x---------------------------|


  Cm7
E|-3--x-x--3-3--x---------------------------|
B|-4--x-x--4-4--x---------------------------|
G|-3--x-x--3-3--x---------------------------|
D|-5--x-x--5-5--x---------------------------|
A|-3--x-x--3-3--x-x-------------------------|
E|----x-x-------x---------------------------|


  Cm7
E|-3--x-x--3-3--x---------------------------|
B|-4--x-x--4-4--x---------------------------|
G|-3--x-x--3-3--x---------------------------|
D|-5--x-x--5-5--x---------------------------|
A|-3--x-x--3-3--x---------------------------|
E|----x-x-------x---------------------------|


  F7
E|-1--x-x--1-1--x---------------------------|
B|-4--x-x--4-4--x---------------------------|
G|-2--x-x--2-2--x---------------------------|
D|-1--x-x--1-1--x---------------------------|
A|-3--x-x--3-3--x-x-------------------------|
E|-1--x-x--1-1--x---------------------------|


Terceira Parte:


E|----x-------------------------------------|
B|----x-------------------------------------|
G|----x-------------------------------------|
D|----x-------3-3---------------------------|
A|----x-------------------------------------|
E|-1--x--1--1-------------------------------|
  • 1
  • 2
  • 3
  • 4
  • 5
  • 6
  • 7
  • 8
  • 9
  • 10
  • 11
  • 12
    Acordes para:
      Colaboração e revisão:

      0 comentários

        mostrar mais comentários

        Conseguiu tocar?

        45tocaram3ainda não

        Grave um vídeo tocando Happy e mande pra gente!

        00:00 / 00:00
        outros vídeos desta música
        repetirqualidadeautomática
        • automática
        Outro vídeos desta música
          Capítulos
          • Tocando a música
          • Dicas iniciais / Equipamentos
          • Acordes da Primeira Parte
          • Tocando Primeira Parte
          • Ensinando Introdução
          • Acordes do Refrão
          • Tocando Refrão
          • Ensinando Refrão
          • Dicas Repetição e Terceira Parte
          • Tocando Terceira Parte
          • Ensinando Terceira Parte (Riff)
          • Encerramento
          • Ficha técnica
          00:00 / 00:00
          automática
          • automática
          Acordes para:violão e guitarra
          dificuldadeexibiçõescontribuições
          1 versão de Tab de baixoexibiçõescontribuições
          1 versão de Partiturasformatodownloadscontribuição
          fecharplay/pause subir/descer velocidade
            Acordes para:violão e guitarra
            acordes
            fechar
            OK