Notificações Amigos pendentes

      Phil Collins

      Easy Lover

      2.890 exibições
      Common Time(4/4)
      Standard Tuning(EADG)
      
      INTRO:
      |---------|---------|---------|---------|---------|---------|
      |---------|---------|---------|---------|---------|---------|
      |---------|---------|---------|---------|---------|---------|
      |-2-------|-------2-|-1-------|---------|-2-------|-------2-|
        1 2 3 4   1 2 3 4   1 2 3 4   1 2 3 4   1 2 3 4   1 2 3 4
      
      |---------|-----------|------------------|-----------|
      |---------|-----1-----|*-3---3-1---3-----|-----------|
      |---------|-4---------|*---------4---4-3-|-1---3-----|
      |-1-------|-----------|------------------|-----------|
        1 2 3 4   1 2 & 3 4    1 & a 2 & 3 4 &   1 2 & 3 4
      
                               (x2)
      |---------------|------------|
      |-3---3-1---3---|-----1-----*|
      |---------4-----|-4---------*|
      |---------------|------------|
        1 & a 2 & 3 4   1 2 & 3 4
      
      CHORUS/SOLO:
      |------------------|-----------|---------------|------------|
      |*-3---3-1---3-----|-----------|-3---3-1---3---|-----1-----*|
      |*---------4---4-3-|-1---3-----|---------4-----|-4---------*| (x3)
      |------------------|-----------|---------------|------------|
         1 & a 2 & 3 4 &   1 2 & 3 4   1 & a 2 & 3 4   1 2 & 3 4
      
      |-----------------|-----------|---------|
      |-3---3-1---3-----|-----------|---------|
      |---------4-------|-1---3-----|---------|
      |-------------1-3-|-----------|-1-------|
        1 & a 2 & 3 4 &   1 2 & 3 4   1 2 3 4
      
      VERSES:
      |------------|-----------|-----------|-----------|-----------------|
      |**|*.-|*|*.-|-3---3-1---3---1-|
      |*-4---3-4---|-4---4---3-|-4---3-4---|-4---4---3-|---------4-------|
      |------------|-----------|-----------|-----------|-----------------|
         1 2 & 3 4   1 2 & 3 4   1 2 & 3 4   1 2 & 3 4   1 & a 2 & 3 4 &
                                    _____        _____
                                   |1st         |2nd
      |-----------|---------------|------------|-------------|
      |-3---3---1-|-3---3-1---3---|-3---3-----*|-3---3-------|
      |-----------|---------4-----|---------3-*|---------4-3-|
      |-----------|---------------|------------|-------------|
        1 2 & 3 4   1 & a 2 & 3 4   1 2 & 3 4    1 2 & 3 4 &
      
      PRE-CHORUS:
      |------------------|--------------------|---------|---------|
      |*-----------------|---------3---3-----*|-4-------|---------|
      |*-1-1-1-1-1-1-1-1-|-3-3-3-3-------4-3-*|---------|---------|
      |------------------|--------------------|---------|---------|
         1 & 2 & 3 & 4 &   1 & 2 & 3 & a 4 &    1 2 3 4   1 2 3 4
      
      |-----------|
      |-----1-----|
      |-4---------|
      |-----------|
        1 2 & 3 4
      
      PRE-SOLO:
                                          (x3)
      |------------------|--------------------|---------|---------|
      |*-----------------|---------3---3-----*|-4-------|-------4-|
      |*-1-1-1-1-1-1-1-1-|-3-3-3-3-------4-3-*|---------|---------|
      |------------------|--------------------|---------|---------|
         1 & 2 & 3 & 4 &   1 & 2 & 3 & a 4 &    1 2 3 4   1 2 3 4
      
      |---------|---------|---------|---------|---------|-----------|
      |-3-------|---------|-4-------|-------4-|-3-------|-----1-----|
      |---------|---------|---------|---------|---------|-4---------|
      |---------|---------|---------|---------|---------|-----------|
        1 2 3 4   1 2 3 4   1 2 3 4   1 2 3 4   1 2 3 4   1 2 & 3 4
      
      END:
                                                     (to fade-out)
      |------------------|-----------|---------------|------------|
      |*-3---3-1---3-----|-----------|-3---3-1---3---|-----1-----*|
      |*---------4---4-3-|-1---3-----|---------4-----|-4---------*|
      |------------------|-----------|---------------|------------|
         1 & a 2 & 3 4 &   1 2 & 3 4   1 & a 2 & 3 4   1 2 & 3 4
      
      By: Johari Taylor
      E-mail: *
      More Bass Tabs: http://*~viking/*
      

      Comentários 0

      140 .
      140 cancelar

      conseguiu tocar?

      covers

      Grave um vídeo tocando Easy Lover e mande pra gente!

      Ex.: http://www.youtube.com/watch?v=0IvSvIwGdwk
      ver covers de outras músicas »
      0:00 / 0:00

      Capítulos

        2 versões de violão dificuldade exibições contribuição e correção
        2 versões de guitarra dificuldade exibições contribuição e correção
        2 versões de cavaco dificuldade exibições contribuição e correção
        2 versões de teclado dificuldade exibições contribuição e correção
        1 versão de baixo exibições contribuição e correção
        play/pausefechar subir/descer velocidade
        6ª corda E5ª corda A4ª corda D3ª corda G2ª corda B1ª corda E
          acordes
          publicidade
          fechar
          ok