Cifra Club

Aprenda

O Ovo

Philippe Lobo

Cifra: Principal (violão e guitarra)
tom: G
E|----------------------------------|
B|----------------------------------|
G|----------------------------------|
D|---------------------------5-3-2--|
A|-----------------5---------6-5-3--|
E|-5-6-7-8---5-6-7-----5-6-7--------|

Flauta:
E|-----------5-8-6----------------------------------|
B|-----5-6-8-------8-6-5---5-8-6-5------------------|
G|-5-7-------------------5---------7-5----5-7-5-----|
D|-------------------------------------7--------5---|
A|--------------------------------------------------|
E|--------------------------------------------------|

E|-----------5-8-6----------------------------------|
B|-----5-6-8-------8-6-5---5-8-6-5------------------|
G|-5-7-------------------5---------7-5----5-7-5-5---|
D|-------------------------------------7------------|
A|--------------------------------------------------|
E|--------------------------------------------------|

E|-8-6-5-------5---------------8---8-6-5-------5-----------|
B|-------8---6---8-6-5---6---6-----------6---6---8-6-5-----|
G|---------7-----------7---7---------------7-----------7-7-|  (2x)
D|---------------------------------------------------------|
A|---------------------------------------------------------|
E|---------------------------------------------------------|

Guitarra:
E|-6-5-3-------3---------------6---6-4-3-------3-----------|
B|-------4---4---6-4-3---4---4-----------3---4---6-4-3-----|
G|---------5-----------5---5---------------5-----------5-5-|
D|---------------------------------------------------------|
A|---------------------------------------------------------|
E|---------------------------------------------------------|

Colaboração e revisão:
  • Thyerrí Cruz
2.206 exibições
    • ½ Tom
    • A
    • Bb
    • B
    • C
    • Db
    • D
    • Eb
    • E
    • F
    • F#
    • G
    • Ab
  • Adicionar à lista

    0 comentários

    Ver todos os comentários

    Conseguiu tocar?

    1 Tocaram 0 Ainda não

    Grave um vídeo tocando O Ovo e nos envie!

    00:00 / 00:00
    outros vídeos desta música
    repetir qualidade Automático
    Outros vídeos desta música
    00:00 / 00:00
    Automático

    Cifra Club Pro

    Aproveite o Cifra Club com benefícios exclusivos e sem anúncios
    Cifra Club Pro
    Aproveite o Cifra Club com benefícios exclusivos e sem anúncios
    OK