Cifra Club

Aprenda

Home

Phillip Phillips

Cifra: Principal (violão e guitarra)
tom: C
Intro: C C4 C C4

C       C4          C   C4
Hold on, to me as we go
     C         C4              C      C4
As we roll down this unfamiliar road
                Am    F/C              C    C4
And although this wave is stringing us along

      C                             C4
E|--------------|--------------|--------------|-------------|
B|----1---------|----1---------|----1---------|----1--------|
G|---------0----|---------0----|---------0----|---------0---|
D|----2------2--|----2------2--|----3------3--|----3------3-|
A|-3-----3------|-3-----3------|-3-----3------|-3-----3-----|
E|--------------|--------------|--------------|-------------|

      Am
E|------------|-------------------------------------|
B|----1---------|----1------------------------------|
G|---------2----|---------2-------------------------|
D|----2------2--|----2------2-----------------------|
A|-0-----0------|-0-----0---------------------------|
E|--------------|-----------------------------------|

Pré-Refrão:

         C   G/B   Am   G   Am
Just know you're not alone
                     F    C    G      C
Cause I'm going to make this place your home

Refrão:

C            F/C             C       F/C
Settle down, it will all be clear
C                        F/C
Don't pay no mind to the demons
                   C     F/C
They fill you with fear
 Am                       F/C
The trouble it might drag you down
           C                       G
If you get lost, you can always be found

Pré-Refrão:

         C   G   Am   G   Am
Just know you're not alone
                     F    C    G       C
Cause I'm going to make this place your home

Interlude:

F/C  C  Am  G   F/C C G
Uhhh   Uhhhh    Uuhhhh

F/C  C  Am  G   F/C C G
Ohhh   Ohhhh    Oohhhh

Refrão:

C            F/C             C       F/C
Settle down, it will all be clear
C                        F/C
Don't pay no mind to the demons
                   C     F/C
They fill you with fear
 Am                       F/C
The trouble it might drag you down
           C                       G
If you get lost, you can always be found

Pré-Refrão:

         C   G   Am   G   Am
Just know you're not alone
                     F    C    G        C
Cause I'm going to make this place your home


Interlude:

F/C  C  Am  G   F/C C G
Uhhh   Uhhhh    Uuhhhh

F/C  C  Am  G   F/C C G
Ohhh   Ohhhh    Oohhhh

Variações Pré-Refrão (Violão 2):

      C    Bm9-  Am   G
E|--------------------------------------------------|
B|---------1----1-----------------------------------|
G|----0--------------0------------------------------|
D|--------------------------------------------------|
A|-3----2----0--------------------------------------|
E|----------------3---------------------------------|

      F     C     G
E|--------------------------------------------------|
B|----1-----1---------------------------------------|
G|----------------0-----0---------------------------|
D|-3-----2------------------------------------------|
A|--------------------------------------------------|
E|-------------3-----3------------------------------|
Composição de Drew Pearson / Greg Holden
Colaboração e revisão:
101.860 exibições
    • ½ Tom
    • A
    • Bb
    • B
    • C
    • Db
    • D
    • Eb
    • E
    • F
    • F#
    • G
    • Ab
  • Adicionar à lista

    0 comentários

    Ver todos os comentários

    Conseguiu tocar?

    25 Tocaram 2 Ainda não

    Grave um vídeo tocando Home e nos envie!

    00:00 / 00:00
    Outros vídeos desta música
    Repetir Qualidade Automático
    Outros vídeos desta música
    00:00 / 00:00
    Automático

    Cifra Club Pro

    Aproveite o Cifra Club com benefícios exclusivos e sem anúncios
    Cifra Club Pro
    Aproveite o Cifra Club com benefícios exclusivos e sem anúncios
    OK