Cifra Club

Dirt Solo

Phish

Cifra: Principal (violão e guitarra)
Selo Cifra Club: esta cifra foi revisada para atender aos critérios oficiais da nossa Equipe de Qualidade.
tom: D
Tabbed by:Jamieimaj
Email:*

Tuning:

e|--------------------------------------------------------------------------------------------------------|
B|--------------------------------------------------------------------------------------------------------|
G|----12/14-14-14-12-11-12-12h14-----------14-12-11----14----11h12-11-----------11h12-11-------11h12-11---|
D|-------------------------------------12-----------12----12----------12-9-12-9----------12-12----------12|
A|--------------------------------------------------------------------------------------------------------|
E|--------------------------------------------------------------------------------------------------------|

e|--17-17-17-15-14-15-15h17-----------17-15-14----17----14h15-14--------------14h15-14-------14h15-14-----|
B|--------------------------------15-----------15----15----------15--12-15-12----------15-15----------15--|
G|--------------------------------------------------------------------------------------------------------|
D|--------------------------------------------------------------------------------------------------------|
A|--------------------------------------------------------------------------------------------------------|
E|--------------------------------------------------------------------------------------------------------|

It's basically just this with a couple of other variations.

| /  slide up
| \  slide down
| h  hammer-on
| p  pull-off
| ~  vibrato
| +  harmonic
| x  Mute note
===============================================================================
Outros vídeos desta música
    152 exibições
      • ½ Tom
      • A
      • Bb
      • B
      • C
      • Db
      • D
      • Eb
      • E
      • F
      • F#
      • G
      • Ab
    • Adicionar à lista

    Afinação da cifra

    Afinador online

      0 comentários

      Ver todos os comentários

      Conseguiu tocar?

      0Tocaram0Ainda não

      Grave um vídeo tocando Dirt Solo e nos envie!

      Toque também

      1. Imagem do artista Grateful DeadFriend Of The Devil Grateful Dead
      2. Imagem do artista Keller WilliamsBounty Hunter Keller Williams
      3. Imagem do artista Trey AnastasioWhen The Words Go Away Trey Anastasio
      4. Imagem do artista Umphrey's McgeeWomen Wine And Song Umphrey's Mcgee

      Entre para o Cifra Club PRO

      Tenha acesso a benefícios exclusivos no App e no Site

      • Chega de anúncios

      • Badges exclusivas

      • Mais recursos no app do Afinador

      • Atendimento Prioritário

      • Aumente seu limite de lista

      • Ajude a produzir mais conteúdo

      Cifra Club Pro

      Aproveite o Cifra Club com benefícios exclusivos e sem anúncios
      Cifra Club Pro
      Aproveite o Cifra Club com benefícios exclusivos e sem anúncios
      Ops (: Contenido disponible sólo en portugués.
      OK