Cifra Club

Bankrupt

Phoenix

Cifra: Principal (violão e guitarra)
tom: Gm
[Intro] E  F  C

E|--0--------0--------|
B|-----1--------1-----|
G|--------0-------0---|
D|--------------------|
A|--------------------|
E|--------------------|

E|--2--------2--------|
B|-----3--------3-----|
G|--------2--------2--|
D|--------------------|
A|--------------------|
E|--------------------|

G
People in fashion
                      Am  E
Rattle don't hesitate
   F
A look of my own
                      F  D#  C  G
Your chances are slim

Victory lap
                          Am
Formal with feathery eyes
  F
Dating vendetta win small
                F  D#  C  G
Spray pesticide

( E  F  C )

E|-----------------------|
B|-----4--------4--------|
G|--------3--------3-----|
D|-----------5--------5--|
A|--6--------------------|
E|-----------------------|

E|-----------------------|
B|-----4--------4--------|
G|--------5--------5-----|
D|-----------5--------5--|
A|--3--------------------|
E|-----------------------|

E|-----------------------|
B|-----3--------3--------|
G|--------3--------3-----|
D|-----------5--------5--|
A|-----------------------|
E|--3--------------------|

E|-----------------------|
B|-----1--------1--------|
G|--------2--------2-----|
D|-----------3--------3--|
A|-----------------------|
E|--1--------------------|

F                   Cm7
Caledonian rich and young
                       Cm
Self-entitled portrait
                             Gm
Court in session, justice done
                          F
We'll rush into it anyway
                        Cm7
Forever is for everyone else
                           Cm
We’re off a couple secrets
                           Gm
Another lonely Tuesday home
                             F
Stolen kisses, is anyone near?

                   Cm7
Caledonian rich and young
                      Cm
Self-entitled portrait
                             Gm
Court in session, justice done
                         F
We'll rush into it anyway
                        Cm7
Forever is for everyone else
                           Cm
We’re off a couple secrets
                           Gm
Another lonely Tuesday home
                            F
Stolen kisses, is anyone near?
00:00 / 00:00
Outros vídeos desta música
Repetir
Outros vídeos desta música
Composição de Christian Mazzalai / Frederic Moulin / Laurent Mazzalai / Thomas Croquet
Colaboração e revisão:
  • Welton Aquino
9 exibições
    • ½ Tom
    • Am
    • Bbm
    • Bm
    • Cm
    • C#m
    • Dm
    • Ebm
    • Em
    • Fm
    • F#m
    • Gm
    • G#m
  • Adicionar à lista

    0 comentários

    Ver todos os comentários

    Entre para oCifra Club PRO

    Tenha acesso a benefícios exclusivos no App e no Site

    • Chega de anúncios

    • Prioridade de compra em lançamentos

    • Mais recursos no app do Afinador

    • Atendimento Prioritário

    • Descontos nos produtos Cifra Club

    • Ajude a produzir mais conteúdo

    00:00 / 00:00

    Cifra Club Pro

    Aproveite o Cifra Club com benefícios exclusivos e sem anúncios
    Cifra Club Pro
    Aproveite o Cifra Club com benefícios exclusivos e sem anúncios
    OK