Cifra Club

Aprenda

Duraznito

Pibes Chorros

Cifra: Principal (violão e guitarra)
Tom: G
[Intro] Dm

E|------------------------------------------|
B|------------------------------------------|
G|-----------6--6---6--6--7-----------------|
D|---------7------7-------------------------|
A|-5-5-5-8----------------------------------|
E|------------------------------------------|

E|------------------------------------------|
B|------------------------------------------|
G|-----------6--6---6--6--------------------|
D|---------7------7-------------------------|
A|-5-5-5-8----------------5-----------------|
E|------------------------------------------|

E|------------------------------------------|
B|------------------------------------------|
G|-----------6--6---6--6--7-----------------|
D|---------7------7-------------------------|
A|-5-5-5-8----------------------------------|
E|------------------------------------------|

E|------------------------------------------|
B|------------------------------------------|
G|-----------6--6---6--6\-2-----------------|
D|---------7------7-------------------------|
A|-5-5-5-8--------------------7\-0----------|
E|------------------------------------------|

( Dm )

    Dm                    C
Se borro duraznito de la villa
     Bb                         F
Se llevo toda la plata del blindado
      Gm                Dm
Esa que nos habíamo afanado
         Bb                   A7
La otra noche, en la General Paz
         Dm                 C
Nos acosto a nosotros sus amigos
       Bb                   F
Nos dejo a todos sin un centavo
       Gm                   Dm
Ahora tiene un piso en Belgrano
            Bb                       A7
Y en un mercedes, se pasea en la ciudad

               C                      F
Miralo a Duraznito viviendo la buena vida
                   C                    F
Y nosotros que pensábamos que era retardado
               Gm                   Dm
Ahora esta rodeado por las mejores minas
                Bb                   A7
Y nosotros los vivos en Devoto encerrados
               C                      F
Miralo a Duraznito viviendo la buena vida
                   C                    F
Y nosotros que pensábamos que era retardado
               Gm                   Dm
Ahora esta rodeado por las mejores minas
                Bb                   A7
Y nosotros los vivos en Devoto encerrados
          Dm
Y sin un mango

E|------------------------------------------|
B|------------------------------------------|
G|-----------6--6---6--6--7-----------------|
D|---------7------7-------------------------|
A|-5-5-5-8----------------------------------|
E|------------------------------------------|

E|------------------------------------------|
B|------------------------------------------|
G|-----------6--6---6--6--------------------|
D|---------7------7-------------------------|
A|-5-5-5-8----------------5-----------------|
E|------------------------------------------|

E|------------------------------------------|
B|------------------------------------------|
G|-----------6--6---6--6--7-----------------|
D|---------7------7-------------------------|
A|-5-5-5-8----------------------------------|
E|------------------------------------------|

E|------------------------------------------|
B|------------------------------------------|
G|-----------6--6---6--6\-2-----------------|
D|---------7------7-------------------------|
A|-5-5-5-8--------------------7\-0----------|
E|------------------------------------------|

( Dm )

    Dm                    C
Se borro duraznito de la villa
     Bb                         F
Se llevo toda la plata del blindado
      Gm                Dm
Esa que nos habíamo afanado
         Bb                   A7
La otra noche, en la General Paz
         Dm                 C
Nos acosto a nosotros sus amigos
       Bb                   F
Nos dejo a todos sin un centavo
       Gm                   Dm
Ahora tiene un piso en Belgrano
            Bb                       A7
Y en un mercedes, se pasea en la ciudad

               C                      F
Miralo a Duraznito viviendo la buena vida
                   C                    F
Y nosotros que pensábamos que era retardado
               Gm                   Dm
Ahora esta rodeado por las mejores minas
                Bb                   A7
Y nosotros los vivos en Devoto encerrados
               C                      F
Miralo a Duraznito viviendo la buena vida
                   C                    F
Y nosotros que pensábamos que era retardado
               Gm                   Dm
Ahora esta rodeado por las mejores minas
                Bb                   A7
Y nosotros los vivos en Devoto encerrados
          Dm
Y sin un mango

E|------------------------------------------|
B|------------------------------------------|
G|-----------6--6---6--6--7-----------------|
D|---------7------7-------------------------|
A|-5-5-5-8----------------------------------|
E|------------------------------------------|

E|------------------------------------------|
B|------------------------------------------|
G|-----------6--6---6--6--------------------|
D|---------7------7-------------------------|
A|-5-5-5-8----------------5-----------------|
E|------------------------------------------|

E|------------------------------------------|
B|------------------------------------------|
G|-----------6--6---6--6--7-----------------|
D|---------7------7-------------------------|
A|-5-5-5-8----------------------------------|
E|------------------------------------------|

E|------------------------------------------|
B|------------------------------------------|
G|-----------6--6---6--6\-2-----------------|
D|---------7------7-------------------------|
A|-5-5-5-8--------------------7\-0----------|
E|------------------------------------------|

( Dm )
Colaboração e revisão:
  • Lucas Kappaun
  • Bruno Campanella
3.122 exibições
    • ½ Tom
    • A
    • Bb
    • B
    • C
    • Db
    • D
    • Eb
    • E
    • F
    • F#
    • G
    • Ab
  • Adicionar à lista

    0 comentários

    Mostrar mais comentários

    Conseguiu tocar?

    0 Tocaram 0 Ainda não

    Grave um vídeo tocando Duraznito e mande pra gente!

    00:00 / 00:00
    outros vídeos desta música
    repetir qualidade Automático
    Outros vídeos desta música
    00:00 / 00:00
    Automático
    OK