Cifra Club

Aprenda

Bulletproof Love

Pierce The Veil

Cifra: Principal (violão e guitarra)
tom: F#
(intro)

E|-----------------------------        :-----------------------|
B|--------11-9-----------------        :--------11-9-----------|
G|-----11------11-10-11-------- (x4)   :-----11-----11-10-11---| (x2)
D|--11-------------------------        :9-11-------------------|
A|9----------------------------        :-----------------------|
E|-----------------------------        :-----------------------|
  x x x                                 x x  x

E|----------------------------------------------|
B|---------11-9------------------12-11-9--------|
G|---10-11-----11-10-11----10-11---------11-10--|
D|11--------------------11----------------------|
A|----------------------------------------------|
E|----------------------------------------------|
  x  x  x               x  x  x

E|---------------------------------------------|
B|12-12-11-11-9-9-------9-9-11-11-9-9----------|
G|----------------11-11------------------------|
D|---------------------------------------------|
A|---------------------------------------------|
E|---------------------------------------------|

E|-----------------------------------------------|
B|-----------------------------------------------|
G|-11-11--------11-11-10-10-----------------------|
D|------11-11-------------14-14-11~--------------|
A|-----------------------------------------------|
E|-----------------------------------------------|

E|--------------------------------------|
B|--------------------------------------|
G|------11-----------11-----------------|
D|---11----11-----11----11--------------|(x4)
A|-9-----------9------------------------|
E|--------------------------------------|

E|--------------------------------------|
B|--------------------------------------|
G|-------10----------10-----------------|
D|----11----11----11----11--------------|(x4)
A|--8-----------8-----------------------|
E|--------------------------------------|

(pre-verse/chorus)
E|------------------------------------------------------|
B|------------------------------------------------------|
G|------------------------------------------------------|  (x2)
D|-----------------6666---------------------------------|
A|--9999----------------8888-----------8888-------------|
E|-------9999-7777-----------9999-7777------------------|

(verse)
E|---------------------------------       :-----------------------|
B|--------11-9---------------------       :--------11-9-----------|
G|-----11-----11-10-11-------------(x4)   :-----11-----11-10-11---| (x2)
D|--11-----------------------------       :9-11-------------------|
A|9--------------------------------       :-----------------------|
E|---------------------------------       :-----------------------|
  x x  x                                   x x  x

E|------------------------------------------------------|
B|---------11-9------------------12-11-9----------------|
G|---10-11-----11-10-11----10-11---------11-10----------|
D|11--------------------11------------------------------|
A|------------------------------------------------------|
E|------------------------------------------------------|
  x  x  x               x  x  x
(chorus: same as pre-verse)

"ill sing along, but im barely hanging on..."
E|----------------------------------|
B|----------------------------------|
G|---11---10----11---10-------------|
D|---11---11----11---11-------------|
A|---9----8-----9----8--------------|
E|----------------------------------|

"And now theres nothing to do...."
E|----------------------------------|
B|----------------------------------|
G|---11--13-------------------------|
D|---11--13-------------------------|
A|---9---11-------------------------|
E|----------------------------------|
Find out rhythm.(cant figure out lead)

(verse 2)
E|-----------------------------------|
B|-----------------------------------|
G|--11---10---11---10----------------|
D|--11---11---11---11----------------|
A|--9----8----9----8-----------------|
E|-----------------------------------|
(find out rhythm)
Composição de Tom Denney / Vic Fuentes
Colaboração e revisão:
  • Lizandra
9.786 exibições
    • ½ Tom
    • A
    • Bb
    • B
    • C
    • Db
    • D
    • Eb
    • E
    • F
    • F#
    • G
    • Ab
  • Adicionar à lista

    0 comentários

    Ver todos os comentários
    00:00 / 00:00
    Outros vídeos desta música
    Repetir Qualidade Automático
    Outros vídeos desta música
    00:00 / 00:00
    Automático

    Cifra Club Pro

    Aproveite o Cifra Club com benefícios exclusivos e sem anúncios
    Cifra Club Pro
    Aproveite o Cifra Club com benefícios exclusivos e sem anúncios
    OK