Cifra Club

Aprenda

Loathsome

Pig Destroyer

Cifra: Principal (violão e guitarra)
tom: Ab
album-phantom limb

tuning- 7 string (A D G C F a d)


d----------------------|
a----------------------|
F----------------------|
C----------------------|
G----------------------|
D-4-3-7-6--4-3-7-------|
A-2-1-5-4--2-1-5-4~----| (4x)

d-----------------------------------------------|
a-----------------------------------------------|
F-----------------------------------------------|
C-----------------------------------------------|
G-----------------------------------------------|
D-----------------------------------------------|
A-2-2-2-1-1-1-5-5-5-4-4-4--2-2-2-1-1-1-5-5-5-4~-| (4x)
  . . . . . . . . . . .    . . . . . . . . .

d----------------------|
a----------------------|
F----------------------|
C----------------------|
G----------------------|
D-4-5-7-6-9-8----4ph---|
A-2-3-5-4-7-6--0-------| (4x)
               .

d----------------------|
a----------------------|
F----------------------|
C----------------------|
G-4-3-7-6--4-3-7-------|
D-2-1-5-4--2-1-5-4~----|
A----------------------| (2x)

d----------------------|
a----------------------|
F----------------------|
C----------------------|
G----------------------|
D-4-3-7-6--4-3-7-------|
A-2-1-5-4--2-1-5-4~----| (2x)

d-----------------------------------------------|
a-----------------------------------------------|
F-----------------------------------------------|
C-----------------------------------------------|
G-----------------------------------------------|
D-----------------------------------------------|
A-2-2-2-1-1-1-5-5-5-4-4-4--2-2-2-1-1-1-5-5-5-4~-| (4x)
  . . . . . . . . . . .    . . . . . . . . .

d----------------------|
a----------------------|
F----------------------|
C----------------------|
G----------------------|
D-4-5-7-6-9-8----4ph---|
A-2-3-5-4-7-6--0-------| (4x)
               .

d---------------------------------|
a---------------------------------|
F---------------------------------|
C---------------------------------|
G-4-------5-----6---------6---4-5-|
D-2-------3-----4---------4---2-3-|
A---0-0-0---0-0---0-0-0-0---0-----| (12x)

d-------------------------------------------       d-----------|
a-------------------------------------------       a-----------|
F-------------------------------------------       F-----------|
C-------------------------------------------       C-----------|
G---------5p-8h-5p-8h-5p-8------------------       G-----------|
D-2------------------------5p-8h-5p-8h-5p-8-       D-2-------2-|
A-0-0-0-0----------------------------------- (15x) A-0-0-0-0-0-|
    . . .                                              . . .

d------------------------------------------------------------------------|
a------------------------------------------------------------------------|
F------------------------------------------------------------------------|
C------------------------------------------------------------------------|
G-----4-4-3-3-6-6-5-5-8-8-7-7----------4-4-3-3-6-6-5-5-8-8-7-7-----------|
D-----2-2-1-1-4-4-3-3-6-6-5-5-9~~------2-2-1-1-4-4-3-3-6-6-5-5-2-4-2-3-2-|
A-0-0------------------------------0-0-------------------------0-2-0-1-0-|(4x)
let that last not ring out

d------------------------------------------------------------------------|
a------------------------------------------------------------------------|
F------------------------------------------------------------------------|
C------------------------------------------------------------------------|
G------------------------------------------------------------------------|
D-----2-2-1-1-4-4-3-3-6-6-5-5-9~~------2-2-1-1-4-4-3-3-6-6-5-5-2-4-2-3-2-|
A-0-0------------------------------0-0-------------------------0-2-0-1-0-|(2x)

d-----------------------------------------------------------------|
a-----------------------------------------------------------------|
F-----------------------------------------------------------------|
C-----------------------------------------------------------------|
G---------4-------3-------6-------5-------8-------7---------------|
D---2-2-2-2-2-2-2-1-2-2-2-4-2-2-2-3-2-2-2-6-2-2-2-5-2-2-2-9p0-9ph-|
A-0-0-0-0---0-0-0---0-0-0---0-0-0---0-0-0---0-0-0---0-0-0---------| (4x)
    . . .   . . .   . . .   . . .   . . .   . . .   . . .

d---------|
A---------|
F---------|
C---------|
G-4-3-7-6-|
D-2-1-5-4-|
A---------|

d-------------------      d----------------------|
a-------------------      a----------------------|
F-------------------      F----------------------|
C-------------------      C----------------------|
G-------------------      G------------------4-5-|
D-4-3-7-6--4-3-7----      D-4-3-7-6--4-3-7-6-2-3-|
A-2-1-5-4--2-1-5-4~- (3x) A-2-1-5-4--2-1-5-4-----|

thats it, its not all 100% correct but i did come
with it in like 10 minutes

if you have any suggestions or questions just
send me a message on *
or my e-mail is C*
(i hardly check my e-mail though)
206 exibições
    • ½ Tom
    • A
    • Bb
    • B
    • C
    • Db
    • D
    • Eb
    • E
    • F
    • F#
    • G
    • Ab
  • Adicionar à lista

    0 comentários

    Ver todos os comentários

    Conseguiu tocar?

    0 Tocaram 0 Ainda não

    Grave um vídeo tocando Loathsome e nos envie!

    00:00 / 00:00
    outros vídeos desta música
    repetir qualidade Automático
    Outros vídeos desta música
    00:00 / 00:00
    Automático

    Cifra Club Pro

    Aproveite o Cifra Club com benefícios exclusivos e sem anúncios
    Cifra Club Pro
    Aproveite o Cifra Club com benefícios exclusivos e sem anúncios
    OK