Cifra Club

Aprenda

Rise

PIL

Cifra: Principal (violão e guitarra)
tom: G
Solo-> (G C9 D) 
Riff 1
E|-----10----|
B|---8-------|
G|-0---------|
D|-----------|
A|-----------|
E|-----------|

G               C9   D          G  C9 D
I could be wrong, I could be right
G               C9   D          G  C9 D
I could be wrong, I could be right

Riff 2
E|-7-7-7-7--7-7---7----|
B|-8-8-8-8-10-8--10----|
G|-7-7-7-7--7-7---7----|
D|---------------------|
A|---------------------|
E|---------------------|

G                   C9
I could be wrong, I could be right
D                   G
I could be black, I could be white
G                   C9
I could be right, I could be wrong
D                   G
I could be white, I could be Black
                                       C9     
Your time has come, your second skin
D                    G
The cost so high the gain so low
                 C9
Walk through the valley 
    D            G
The written work is a lie
<-- 4x
             D         G
May the road rise with you
    D        G 
E|--10----|--10--|
B|--10----|--12--|
G|--11----|--12--|
D|--------|------|
A|--------|------|
E|--------|------|
<--
<-
Solo:(G C9 D) riff 1
I Could be wrong, I could be right
I could be black, I could be white

G                   C
I could be wrong, I could be right
D                   G
I could be black, I could be white
G                   C9
I could be right, I could be wrong
D                   G
I could be black, I could be white
                                C9     
They put a hot wire to my head
D                           G
Cos of the things I did and said
                                           C9
They made these feelings go away
D                        G
Model citizen in every way
             D         G
May the road rise with you

(E B)
E            B4
Anger is an energy
E            B4
Anger is an energy
E            B4
Anger is an energy
E            B4
Anger is an energy
Solo-> (E) 
E|-*-*-*-----7-*-*-----7------5---------------------|
B|-*-*-*---5---*-*---5------3----0h-1h-3-0h-1h-3----|
G|-*-*-*-0-----*-*-0------0-------------------------|
D|--------------------------------------------------|
A|--------------------------------------------------|
E|--------------------------------------------------|
End: G C D G C D G (base)
End: riff 1 (solo)
Compositor não encontrado.
9.211 exibições
    • ½ Tom
    • A
    • Bb
    • B
    • C
    • Db
    • D
    • Eb
    • E
    • F
    • F#
    • G
    • Ab
  • Adicionar à lista

    0 comentários

    Ver todos os comentários

    Conseguiu tocar?

    1 Tocaram 0 Ainda não

    Grave um vídeo tocando Rise e nos envie!

    00:00 / 00:00
    Outros vídeos desta música
    Repetir Qualidade Automático
    Outros vídeos desta música
    00:00 / 00:00
    Automático

    Cifra Club Pro

    Aproveite o Cifra Club com benefícios exclusivos e sem anúncios
    Cifra Club Pro
    Aproveite o Cifra Club com benefícios exclusivos e sem anúncios
    OK