Cifra Club

Crutch

Pinback

Cifra: Principal (violão e guitarra)
Selo Cifra Club: esta cifra foi revisada para atender aos critérios oficiais da nossa Equipe de Qualidade.
tom: Ebm
E|E|-------------------------------------------------------------------------------||
                             Crutch - Pinback
E|E|-------------------------------------------------------------------------------||
Tabbed by: Justin R

Tuning: one half step down (D# G# C# F# A# d#)
Notes: Each part is presented roughly in the order in which it appears. Took some 
minor creative liberties but this is what I came up with. Enjoy. 


    Main/Intro :
  
        |              |             |             |       
E|----------------------------------------------------------------|
B|-------------------------------------4-----4h5-----5h7-----7p4--|
G|--------8------8-------8------8---------------------------------|
D|----------------------------------------------------------------|
A|-----7-------7----------------------------------4-------4-------|
E|--------------------9-------9-----4------4----------------------|

    Guitar Mirroring Vocal Melody :

        |       |         |       |            |        |       |       |
E|------------------------------------------|-----------------------------------|
B|------------------------------------------|-----------------------------------|
G|------------------------------------------|-----------------------------------|
D|------------------------------------------|------6-------6-------6------------|
A|-----6---6---6------4--6---6---6------4---|-6------9-------6-------9----------|
E|------------------7-----------------7-----|-----------------------------7-4---|

        |       |        |        |         |        |       |        |     
E|---------------------------------------|--------------------------------------|
B|---------------------------------------|--------------------------------------|
G|---------------------------------------|--------------------------------------|
D|---------------------------------------|--------------------------------------|
A|---------4--4/6------------4--4/6------|-----4---4/6------------4--4/6---7----|
E|-----7------------7-4-7-----------7-4--|-7------------7-4-7-------------------|


     Acoustic Strumming During "I got to know the way - today.." :

        |    |    |    |       
E|-----4---------4--x-x---|
B|-----4---------4--x-x--.|
G|-----4---------4--x-x---|
D|-----6---------6--x-x---|
A|-----6---------6--x-x--.|
E|-----4---------4--x-x---|

     Guitar plays this when vocals stop:

        |       |       |       |         |       |       |      | 
E|-------------------------------------|---------------------------------|
B|-------------------------------------|--------------------------------.|
G|-------------------------------------|---------------------------------|
D|-------------------------------------|---------------------1------1----|
A|-----6-7-6-7-6-7-6-7-4-6-4-6-4-6-4-6-|---4---4-----------2------2-----.|
E|-------------------------------------|-7---7---7-4-7---4------4--------|

     Acoustic Strumming during the chorus (listen for the pattern): 
      
      |         |       |       |
E|---4---------6-------4-------4----4---|
B|---4---------6-------6-------4----4--.|
G|---5---------7-------6-------5----5---|
D|---6---------8-------6-------6----6---|
A|---6---------8-------4-------6----6--.|
E|---4---------6---------------4----3---|


     Accompanies vocal during chorus: 

      |         |       |      |      |         |       |       |
E|---------------------------------|------------------------------|
B|---------------------------------|------------------------------|
G|------------8--10-8--------------|----------8--10-8-------------|
D|---------10---------10-----------|-------10---------10-8--------|
A|-----5/8--------------------8----|---5/8-----------------11-----|
E|------------------------10-------|------------------------------|


      |         |        |      |      |        |        |        |  
E|---------------------------------|-------------------------------|
B|---------------------------------|-------------------------------|
G|------------8--------------------|-------------------------------|
D|---------10----10--8-------------|-----8-6--------------8-6------|
A|-----5/8---------------------8---|--8-----------------6----------|
E|-------------------------10------|-------------------------------|
     

 That bridgey part right before the solo:

      |      |       |      |      |     |       |     |       
E|------------------------------|-----------------------------|
B|------------------------------|-----------------------------|
G|------------------------------|-----------------------------|
D|------------------------------|-----------------------------|
A|--------6-4------------6-4----|-----6-4-----------6-4-------|
E|--------------7---4---------7-|-7---------7---4---------7---|


  Guitar Solo Yeah!:
        |           |         |         |           |           |          |          |
E|----------------------------------------------|---------------------------------------------|
B|----12-------12-------14---16---14---12-14-12-|--12-------12-------14---16---14----12-14-12-|
G|-------13-11----13-11------13-----------------|-----13-11----13-11------13------------------|
D|----------------------------------------------|---------------------------------------------|
A|----------------------------------------------|---------------------------------------------|
E|----------------------------------------------|---------------------------------------------|

     |          |          |         |           |           |           |            |
E|-------------------------------------------|--------16----16----------------16-----19----19-------|
B|-12-------12-------14---16---14---12-14-12-|--14-16----16----16-14-16-14-16----16----------------.|
G|----13-11----13-11------13-----------------|------------------------------------------18----18----|
D|-------------------------------------------|------------------------------------------------------|
A|-------------------------------------------|-----------------------------------------------------.|
E|-------------------------------------------|------------------------------------------------------|


| /   slide up
| \   slide down
| h   hammer-on
| p   pull-off
| ~   vibrato
| +   harmonic
| x   Mute note
| b   Bend
| pb  Pre-bend
| br  Bend release
| pbr Pre-bend release
| brb Bend release bend
Outros vídeos desta música
    7 exibições
      • ½ Tom
      • Am
      • Bbm
      • Bm
      • Cm
      • C#m
      • Dm
      • Ebm
      • Em
      • Fm
      • F#m
      • Gm
      • G#m
    • Adicionar à lista

    Afinação da cifra

    Afinador online

      0 comentários

      Ver todos os comentários

      Conseguiu tocar?

      0Tocaram0Ainda não

      Grave um vídeo tocando Crutch e nos envie!

      Toque também

      1. Imagem do artista Built To SpillCarry The Zero Built To Spill
      2. Imagem do artista Minus The BearAbsinthe Party At The Fly Honey Warehouse Minus The Bear
      3. Imagem do artista Rob CrowSo Way Rob Crow
      4. Imagem do artista The American Analog SetChoir Vandals The American Analog Set

      Entre para o Cifra Club PRO

      Tenha acesso a benefícios exclusivos no App e no Site

      • Chega de anúncios

      • Badges exclusivas

      • Mais recursos no app do Afinador

      • Atendimento Prioritário

      • Aumente seu limite de lista

      • Ajude a produzir mais conteúdo

      Cifra Club Pro

      Aproveite o Cifra Club com benefícios exclusivos e sem anúncios
      Cifra Club Pro
      Aproveite o Cifra Club com benefícios exclusivos e sem anúncios
      Ops (: Contenido disponible sólo en portugués.
      OK