Cifra Club

Aprenda

Dogs

Pink Floyd

Cifra: Original (violão e guitarra)
tom: F (forma dos acordes no tom de G) Afinação: D G C F A D
Intro:
(4x) Parte 1

D|-2----2----2----x--x--2----2----2----x----x----2----2----|
A|-3----3----3----x--x--3----3----3----x----x----3----3----|
F|-0----0----0----x--x--0----0----0----x----x----0----0----|
C|-2----2----2----x--x--2----2----2--------------2----2----|
G|-2----2----2----------2----2----2--------------2----2----|
D|-0----0----0----------0----0----0--------------0----0----|

(4x) Parte 2
D|-0----0----0----x--x--0----0----0----x----x----0----0----|
A|-1----1----1----x--x--1----1----1----x----x----1----1----|
F|-0----0----0----x--x--0----0----0----x----x----0----0----|
C|-3----3----3----x--x--3----3----3--------------3----3----|
G|-3----3----3----------3----3----3--------------3----3----|
D|-0----0----0----------0----0----0--------------0----0----|

(4x) Parte 3
D|-0----0----0----x--x--0----0----0----x----x----0----2----|
A|-2----2----2----x--x--2----2----2----x----x----2----2----|
F|-4----4----4----x--x--4--- 4----4----x----x----4----4----|
C|-4----4----4----x--x--4----4----4--------------4----4----|
G|---------------------------------------------------------|
D|---------------------------------------------------------|

(4x) Parte 4
D|-0----0----0----x--x--0----0----0----x----x----0----1----|
A|-1----1----1----x--x--1----1----1----x----x----1----1----|
F|-3----3----3----x--x--3--- 3----3----x----x----3----3----|
C|-3----3----3----x--x--3----3----3--------------3----3----|
G|---------------------------------------------------------|
D|---------------------------------------------------------|

Parte 1
You got to be crazy, gotta have a real need
      Parte 2
Got to sleep on your toes, and when you're on the street
                                                     Parte 3
Got to be able to pick out the easy meat with your eyes closed
Then moving in silently down wind and out of sight
Parte 4
You got to strike when the moment is right, without thinking

Parte 1
And after a while you can work on points for style
Parte 2
Like the club tie and a firm handshake
A certain look in the eye and an easy smile
Parte 3
You have to be trusted by the people that you lie to
Parte 4
So that when they turn their backs on you
You'll get the chance to put the knife in

(SOLO 1: Parte 1 (4x), Parte 2 (4x), Parte 3 (4x) e Parte 4 (4x))

Parte 1
You gotta keep one eye looking over your shoulder
         Parte 2
You know it's gonna get harder harder and harder as you get older
      Parte 3
Yeah, and in the end, you'll pack up and fly down south
Hide your head in the sand
Parte 4
Just another sad old man
All alone and dying of cancer

(REPETIR ANTES DO SOLO 2: Parte 1 (4x), Parte 2 (4x), Parte 3 (4x) e Parte 4 (4x))

(SOLO 2: D, Em)

Segunda parte da Dogs:

Segunda parte 1 (8x)

D|-----------0----2----2----2----2-------------------------|
A|-----------0----3----3----3----3-------------------------|
F|-----------0----0----0----0----0-------------------------|
C|-----------2----4----4----4----4-------------------------|
G|------2--------------------------------------------------|
D|-0-------------------------------------------------------|

Segunda parte 2

D|-0----x----0----x--x--x--x---0----x----0-----------------|
A|-1----x----3----x--x--x--x---1----x----3-----------------|
F|-0----x----0----x--x--x--x---0----x----0-----------------|
C|-3----x----5----x--x--x--x---3----x----5-----------------|
G|-3----x----5----x--x--x--x---3----x----5-----------------|
D|---------------------------------------------------------|

Segunda Parte 3

D|-0----x---------x--x--x--x-------------------------------|
A|-1----x----0----x--x--x--x-------------------------------|
F|-0----x----2----x--x--x--x-------------------------------|
C|-3----x----1----x--x--x--x---------0-----------0---------|
G|-3----x----2----x--x--x--x------2-----------0----0-------|
D|-----------------------------3-----------2---------------|

(SOLO 3: Segunda parte 1)

Segunda parte 1
And when you lose control you'll reap the harvest you have sown
                          Segunda parte 2                      Segunda parte 3                     
And as the fear grows the bad blood slows and turns to stone
Segunda parte 1
And it's too late to loose the weight you used to need to throw around
            Segunda parte 2
So have a good drown as you go down all alone
Segunda parte 3
Dragged down by the stone


Parte 1
Gotta admit that I'm a little bit confused
Parte 2
Sometimes it seems to me as if I'm just being used
Parte 3
Gotta stay awake gotta try and shake off this creeping malaise
Parte 4
If I don't stand my own ground, how can I find my way out of this maze?
Parte 1
Deaf, dumb and blind, you just keep on pretending
Parte 2
That everyone's expendable and no one has a real friend
Parte 3
And it seems to you the thing to do would be to isolate the winner
Parte 4
And everything's done under the sun
And you believe at heart everyone's a killer

(SOLO 4: Parte 1 (4x), Parte 2 (4x), Parte 3 (4x) e Parte 4 (4x))

(SOLO 5: D, Em)

G                 D             Em       D
Who was born in a house full of pain?
G                      D           Em    D
Who was trained not to spit in the fan?
G                  D          Em         D
Who was told what to do by the man?
G                  D          Em         D
Who was broken by trained personel?
G                   D        Em          D
Who was fitted with colar and chain?
G                D          Em           D
Who was given a pat on the back?
G                D             Em        D
Who was breaking away from the pack?
G              D           Em            D
Who was only a stranger at home?
G              D           Em            D
Who was ground down in the end?
G              D          Em             D
Who was found dead on the phone?
G               D          C          B
Who was dragged down by the stone?
B               G          F#
Who was dragged down by the stone?
Composição de David Gilmour / Roger Waters
Colaboração e revisão:
  • Guilherme Fontenele
3.850 exibições
    • ½ Tom
    • A
    • Bb
    • B
    • C
    • Db
    • D
    • Eb
    • E
    • F
    • F#
    • G
    • Ab
  • Adicionar à lista

    0 comentários

    Ver todos os comentários
    00:00 / 00:00
    Outros vídeos desta música
    Repetir Qualidade Automático
    Outros vídeos desta música
    00:00 / 00:00
    Automático

    Cifra Club Pro

    Aproveite o Cifra Club com benefícios exclusivos e sem anúncios
    Cifra Club Pro
    Aproveite o Cifra Club com benefícios exclusivos e sem anúncios
    OK