Cifra Club

Echoes

Pink Floyd

Cifra: Principal (violão e guitarra)
Tom: B
[Intro] F#m  C#m  F#m 
        C#m  F#m  C#m
        A#m  A  G#4  G#  C#m
        C#m  F#m  C#m  A#m 
        A  G#4  G#

           B                                 B
E|---12b14~~-14r--------------------|--12b14~~--14r--------------------|
B|----------------------------------|----------------------------------|
G|----------------------------------|----------------------------------|
D|----------------------------------|----------------------------------|
A|----------------------------------|----------------------------------|
E|----------------------------------|----------------------------------|

    C#m
E|----------------------------------|----------------------------------|
B|---12b14~~----------------x-12~~--|--12b14~~-14r---------------------|
G|----------------------------------|----------------------------------|
D|----------------------------------|----------------------------------|
A|----------------------------------|----------------------------------|
E|----------------------------------|----------------------------------|

   F#m     B                   B
E|--12b14~~r------------------12--9-|--12b14r~~-----------12-----------|
B|----------------------------------|-----------------------------12--|
G|----------------------------------|----------------------------------|
D|----------------------------------|----------------------------------|
A|----------------------------------|----------------------------------|
E|----------------------------------|----------------------------------|

   C#m
E|----------------------------------|----------------------------------|
B|---12~b14----------12-------------|----------------------------------|
G|----------------------11b13r11--9-|-11~b13---------11b13r11--9-------|
D|----------------------------------|------------------------------9---|
A|----------------------------------|----------------------------------|
E|----------------------------------|----------------------------------|

   F#m
E|----------------------------------|----------------------------------|
B|----------------------------------|----------------------------------|
G|------------------------------9---|--9-11-----11b13-9--11-11b13-9----|
D|--------------------7--9--11------|----------------------------------|
A|----------------------------------|----------------------------------|
E|----------------------------------|----------------------------------|

   C#m
E|----------------------------------|----------------------------------|
B|-11~b13-----------------------9---|-12~b14---------------------------|
G|----------------------------9-----|----------------------------------|
D|----------------------------------|----------------------------------|
A|----------------------------------|----------------------------------|
E|----------------------------------|----------------------------------|

   Bbm7   A   B   B    B
E|--12b13---------------------------|-11b12------------------11~b12----|
B|----------------------------------|----------------------------------|
G|----------------------------------|----------------------------------|
D|----------------------------------|----------------------------------|
A|----------------------------------|----------------------------------|
E|----------------------------------|----------------------------------|

   G#4                              G#
E|--11~-----------------------------|----------------------------------|
B|----------------------------------|----------14r13-------------------|
G|----------------------------------|-----------------13---------------|
D|----------------------------------|--------------------13\11-10------|
A|----------------------------------|-----------------------------11---|
E|----------------------------------|----------------------------------|

       C#m
E|----------------------------------|----------------------------------|
B|----------------------------------|----------------------------------|
G|------------11b13r11-9--11-11b13~~|~~~~~~~~---------11--9p8----------|
D|-11-------------------------------|---------------------------11-9---|
A|----------------------------------|----------------------------------|
E|----------------------------------|----------------------------------|

E|----------------------------------|-------------------9--------------|
B|----------------------------------|----------------------9--12-12b14|
G|----------------------------------|----------9-11b13-----------------|
D|-11-------------------------------|------11--------------------------|
A|----------------------------------|----------------------------------|
E|----------------------------------|----------------------------------|

      F#m
E|----------------------------------|---------------------------------|
B|------------------------10-9------|---------------------------------|
G|-----------------------------11-9-|-11/1311---11b13--9--11-11b13-9-|
D|----------------------------------|---------------------------------|
A|----------------------------------|---------------------------------|
E|----------------------------------|---------------------------------|

   C#m
E|----------------------------------|----------------------------------|
B|---------------------12-12b14-----|-12-12b14-------------------------|
G|------------11b13~------------9---|----------------------------------|
D|-11-------------------------------|----------------------------------|
A|----------------------------------|----------------------------------|
E|----------------------------------|----------------------------------|

   Bbm7   A   B   B           B
E|--12b13---------------------------|-11b12------------------11b12)----|
B|----------------------------------|----------------------------------|
G|----------------------------------|----------------------------------|
D|----------------------------------|----------------------------------|
A|----------------------------------|----------------------------------|
E|----------------------------------|----------------------------------|

     G#4                              G#
E|--11------------------------------|----------------------------------|
B|----------------------------------|----------14r13-------------------|
G|----------------------------------|-----------------13---------------|
D|----------------------------------|--------------------13-11-10------|
A|----------------------------------|-----------------------------11---|
E|----------------------------------|----------------------------------|

   C#m
E|------------------------------------------|
B|------------------------------------------|
G|------------------------------------------|
D|-11~~~~-----------------------------------|
A|------------------------------------------|
E|------------------------------------------|

C#m
Overhead the albatross
       G#m
Hangs motionless upon the air
     F#m
And deep beneath the rolling waves
    G#
In labyrinths of coral caves
    C#m
The echo of a distant tide
       G#m
Comes willowing across the sand
    F#m                                G#
And everything is green and submarine

     C#
And no one showed us to the land
     G#
And no one knows the wheres or whys
     F#m
But something stirs and something tries
      G#              A
And starts to climb towards the light

[Solo] C#m  A  C#m  A 
       C#m  A  E  B  C

  C#m                     A                       C#m
E|-----------------------|----------------------|-4-4-4--4--4--|
B|-----------------------|----------------------|-5-5-5--5--5--|
G|-----------------------|----------------------|-6-6-6--6--6--|
D|-----------------------|1-2-1-2-4-6-4-6-7-6---|-6-6-6--6--6--|
A|-4-3-2-1-0---0-2-4-2-4-|--------------------4-|-4-4-4--4--4--|
E|-----------4-----------|----------------------|--------------|

  C#m                     A                    E
E|-----------------------|-------------------|------0--------0---|
B|-----------------------|-------------------|--------0--------0-|
G|-----------------------|-------------------|-------------------|
D|-----------------------|-1-2-1-2-1---------|---2--------2------|
A|-4-3-2-1-0---0-2-4-2-4-|-----------4-3-2-0-|-------------------|
E|-----------4-----------|-------------------|-0--------0--------|
   
   B       C
E|-----0-------0----|
B|---0---0---1---1--|
G|------------------|
D|------------------|
A|-2-------3--------|
E|------------------|

   C#m
Strangers passing in the street
     G#m
By chance two separate glances meet
    F#m                        G#
And I am you and what I see is me
     C#m
And do I take you by the hand
     G#m
And lead you through the land
     F#m                           G#
And help me understand the best I can

     C#
And no one calls us to move on
     G#
And no one forces down our eyes
     F#m
And no one speaks and no one tries
     G#            A
And no one flies around the sun

( C#m  A  C#m  A )
( C#m  A  E  B  C )
( Bm  F#m  Bm/D  E4 )
( C#m  G#m  E  F# )
( C#m  G#m  E  F# )

  C#m                           G#m
Cloudless everyday you fall upon my waking eyes
   F#m                       G#
Inviting and inciting me to rise
       C#m
And through the window, in the wall
        G#m
Come streaming in on sunlight wings
   F#m                               G#
A million bright ambassadors of morning

     C#
And no one sings me lullabies
     G#
And no one makes me close my eyes
 F#m
So I throw the windows wide
     G#          A
And call to you across the sky

( C#m  A  C#m  A )
( C#m  A  E  B  C )
( C#m  G#m  F#m  G# )
exibições 137.691
Acordes para:

    0 comentários

    mostrar mais comentários

    Conseguiu tocar?

    25 tocaram 2 ainda não

    Grave um vídeo tocando Echoes e mande pra gente!

    00:00 / 00:00
    outros vídeos desta música
    repetir qualidade Automático
    Outros vídeos desta música
    00:00 / 00:00
    Automático
    OK