Cifra Club

Goodbye Blue Sky

Pink Floyd

Cifra: Principal (violão e guitarra)
Tom: A
[0:20]
"Look mummy, there's an aeroplane up in the sky."

   [0:24]
E|-----------------|-----------------|-----------------|
B|-----------------|-----------------|-----------------|
G|-------0---------|-------0---------|-------0---------|
D|---4-------4---4-|---4-------4---4-|---4-------4---4-|
A|-5---5-------5---|-5---5-------5---|-5---5-------5---|
D|-0---0---0---0---|-0---0---0---0---|-0---0---0---0---|
 
                       [0:33]
E|-------------------|---------------------------|
B|-------------------|---------------------------|
G|-------0-----------|---5---5-------4-4---------|
D|---4-----4-2-------|---5---5-------4-4---------|
A|-5---5-------3p2p0-|-0---0---0---0---0--0-0-0--|
D|-0---0-------------|---------------------------|
 
E|--------------------------|----------------------|
B|--------------------------|----------------------|
G|---5---5-------4-4--------|---5---5-------4-4----|
D|---5---5-------4-4--------|---5---5-------4-4----|
A|-0---0---0---0---0--0-0-0-|-0---0---0---0---0--0-|
D|--------------------------|----------------------|
               [0:46]
E|-----------|-----------------------------------|
B|-----------|-----------------------------------|
G|-4---5---6-|-----0-------0---------------------|
D|-4---5---6-|---4---4---4---4---4-4-2---0-------|
A|---0---0---|-5-------5-------5-------------2p0-|
D|-----------|-0---0---0---0---0---0---0---0-----|

   [0:50]
                              
E|---5---3-----2-----0---0---0-0-|---------|
B|---7---5-----3-----2---2h3-2-0-|---------| 
G|-------------------------------|-----0---|
D|-0---0---0-0---0-0---0-----0---|---4---4-|
A|-------------------------------|-2-------|
D|-------------------------------|---------|
    Uhhh  Uhhh  Uhhh  Uh  Uhh Uhh 

   
E|-----------------------|
B|-----------------------|
G|---5---5-----4-4-------|
D|---5---5-----4-4-------|
A|-0---0---0-0---0-0-0-0-|
D|-----------------------|
   Di-di-di... Did you see the frightened ones?
   Di-di-di... Did you hear the falling bombs?

   [1:26]
E|-----------------------------------|-----------------------------|
B|-----------------------------------|-----------------------------|
G|---5---5-----5---4---4---2---2---0-|-----------------------------|
D|---5---5-----5---4---4---2---2---0-|---5---4---4---2---2---0---0-|
A|-0---0---0-0---0---0---0---0---0---|---5---5---5---5---5---5---4-|
D|-----------------------------------|-0---0---0---0---0---0---0---|
    Di-di-di... Did you ever wonder why we had to run for shelter when the
               promise of a brave new world unfurled beneath a clear blue sky?

   [1:36]
  
E|---------|
B|---------|
G|-----0---|
D|---4---4-|
A|-2-------|
D|---------|
 
   [1:39]
E|-----------------|-----------------|
B|-----------------|-----------------|
G|-------0---------|-------0---------|
D|---4-------4---4-|---4-------4---4-|
A|-5---5-------5---|-5---5-------5---|
D|-0---0---0---0---|-0---0---0---0---|
 
   [1:43]                            
E|---5---3-----2-----0---0---0-0-|---------|
B|---7---5-----3-----2---2h3-2-0-|---------| 
G|-------------------------------|-----0---|
D|-0---0---0-0---0-0---0-----0---|---4---4-|
A|-------------------------------|-2-------|
D|-------------------------------|---------|
    Uhhh  Uhhh  Uhhh  Uhh Uhh Uhh


E|-----------------------|
B|-----------------------|
G|---5---5-----4-4-------|
D|---5---5-----4-4-------|
A|-0---0---0-0---0-0-0-0-|
D|-----------------------|
   Di-di-di... Did you see the frightened ones?
   Di-di-di... Did you hear the falling bombs?

   [2:10]
E|---------------------------------|
B|---------------------------------|
G|---5---5-------4-4-----4---5---6-|
D|---5---5-------4-4-----4---5---6-|
A|-0---0---0---0---0--0----0---0---|
D|---------------------------------|
    The flames are all gone, but the pain lingers on.

   [2:14]
E|-----------------------------------|
B|-----------------------------------|
G|-----0-------0---------------------|
D|---4---4---4---4---4-4-2---0-------|
A|-5-------5-------5-------------2p0-|
D|-0---0---0---0---0---0---0---0-----|
 
   [2:18]
E|-5---3-----7-5------5---3-----7-5---0-0-|
B|-7---5-----8-7------7---5-----8-7---1-1-|
G|----------------------------------------|
D|-0-0---0-0-0---0-0--0-0---0-0-0---0-0---|
A|----------------------------------------|
D|----------------------------------------|
    Goodbye, blue sky. Goodbye, blue sky.   Goodbye.

   [2:27]
E|---------------0---0--------------------------|
B|---------------1/3-1--------------------------|
G|----------------------------------------------|
D|-0-0-0-0-0-0-0-0-----0-0-0-0-0-0--------------|
A|---------------------------------3p2p0--------|
D|---------------------------------------2(b)p0-|
                 Goodbye.    

   [2:36]
E|-----------------|-----------------|-----------------|-----------------|
B|-----------------|-----------------|-----------------|-----------------|
G|-------0---------|-------0---------|-------0---------|-------0---------|
D|---4-------4---4-|---4-------4---4-|---4-------4---4-|---4-------4---4-|
A|-5---5-------5---|-5---5-------5---|-5---5-------5---|-5---5-------5---|
D|-0---0---0---0---|-0---0---0---0---|-0---0---0---0---|-0---0---0---0---|
 
[2:39]
"The 11:15 from Newcastle is now approaching"
"The 11:18 arrival...."
exibições 167.215
Acordes para:
    Composição: Roger Waters Colaboração e revisão:
    • João Tostes

    0 comentários

    mostrar mais comentários

    Conseguiu tocar?

    27 tocaram 3 ainda não

    Grave um vídeo tocando Goodbye Blue Sky e mande pra gente!

    00:00 / 00:00
    outros vídeos desta música
    repetir qualidade Automático
    Outros vídeos desta música
    00:00 / 00:00
    Automático
    OK