Enviar cifraEntrar

Hey You

Pink Floyd

Cifra: Principal
exibições 386.545
Tom: G
(intro)

E|----------------------------------|-------5-----5----------5-----5---| |
B|-7-----8-----8----7-----8-----8---|-5-------6-----6--5-------6-----6-| |
G|-----9---9-----9------9---9-----9-|-----7-----7----------7-----7-----| } (4x)
D|---9-------9--------9-------9-----|---7----------------7-------------| |
A|----------------------------------|----------------------------------| |
E|----------------------------------|----------------------------------| |


(riff 1)
    Em
Hey you
Out there in the cold
Getting lonely, getting old
         Bm
Can you feel me?
    Em
Hey you
Standing in the aisle
With itchy feet and fading smile
         Bm
Can you feel me?
     D
Hey you
                            G D C
Don't help them to bury the light
Bm           Am          Em        (intro 1x)
Don't give in, without a fight

    Em
Hey you
Out there on your own
Sitting naked by the phone
          Bm
Would you touch me?

    Em
Hey you
With your ear against the wall
Waiting for someone to call out
          Bm
Would you touch me?

D
 Hey you
                                G D C
Would you help me to carry the stone?
Bm             Am           Em
Open your heart, I'm coming home

(base solo: Am  Em)
   (4x)       (4x)

E|---------|---------|
B|---------|---------|
G|---------|---------|
D|---------|---------|
A|---------|-0-2-3-2-|
E|-0-2-3-2-|---------|


(solo)

E|-----------------------------------------------------------|
B|-----------------------------------------------------5h7---|
G|-7b9~~-r7--7b9-7b9~~-r7--7b9-7b9~~--7b9r8-7b9--7b9~~-----0-|
D|-----------------------------------------------------------|
A|-----------------------------------------------------------|
E|-----------------------------------------------------------|


E|----------------------------------5-7-5-7-8--7b8-7b8-8--7b8-8--7b8-8-|
B|-5-7-8-7--5-7-8-7--5-7-8-7--5-7-8------------------------------------|
G|---------------------------------------------------------------------|
D|---------------------------------------------------------------------|
A|---------------------------------------------------------------------|
E|---------------------------------------------------------------------|


E|-----12-----------15-12----15-12------|-------------------------12---------|
B|-15b----15b---15b-------15b-------15b-|-15b17-15p12-------12-15----15b-15b-|
G|--------------------------------------|-------------14h16------------------|
D|--------------------------------------|------------------------------------|
A|--------------------------------------|------------------------------------|
E|--------------------------------------|------------------------------------|


E|-------17-19-17-19-20--19b20-20--19b20-17-19-17-19-20--19b-20-17-20-|
B|-19-20--------------------------------------------------------------|
G|--------------------------------------------------------------------|
D|--------------------------------------------------------------------|
A|--------------------------------------------------------------------|
E|--------------------------------------------------------------------|


E|-19b-20-17-19~-|
B|---------------|
G|---------------|
D|---------------|
A|---------------|
E|---------------|


C            D      G  D  C
  But it was only a fantasy
                 D         G   D   C
The wall was too high, as you can see
                   D              G   D     C
No matter how he tried, he could not break free
              D             Em
And the worms ate into his brain

(intro 2x)

    Em
Hey you
Out there on the road
Always doing what you're told
        Bm
Can you help me?

    Em
Hey you
Out there beyond the wall
Breaking bottles in the hall
        Bm
Can you help me?


E|--------------|
B|--------------|
G|--------------|
D|-4-4--5-5--5-7|
A|-2-2--3-3--5-5|
E|--------------|

 Hey you
                                 G D C
Don't tell me there's no hope at all
  Bm             Am           Em
Together we stand, divided we fall

(end music)


(riff 1)
(3x)

E|-----------------|-------7-------7-------7-----7---|
B|-7-----8-----8---|-5-------7-------7-------7-------|
G|-----9---9-----9-|-----7-----7-------7-------7---7-|
D|---9-------9-----|---7---------9-------9-----------|
A|-----------------|---------------------------------|
E|-----------------|---------------------------------|


(3x)

E|-----------------|-------7-----7----------7------7---|
B|-7-----8-----8---|-5-------7--------7-------7--------|
G|-----9---9-----9-|-----7-----7---7------7-----7----7-|
D|---9-------9-----|---7----------------9--------------|
A|-----------------|-----------------------------------|
E|-----------------|-----------------------------------|


E|-------5-----5----------5-----5---|-7-----7--5-----5--3-----3-----3-------|
B|-5-------6-----6--5-------6-----6-|-----8--------6--------5---5-------5---|
G|-----7-----7----------7-----7-----|---9--------7--------5-------5---5---5-|
D|---7----------------7-------------|---------------------------------------|
A|----------------------------------|---------------------------------------|
E|----------------------------------|---------------------------------------|
                                                        (2x)

E|---3-----3---|-------7-----7-----------5-----5---|-----------------|
B|-5---5-------|-7-------7--------5--------5-------|-7-----8-----8---|
G|-------5---5-|-----9-----7---7------7------7---7-|-----9---9-----9-|
D|-------------|---9----------------7--------------|---9-------9-----|
A|-------------|-----------------------------------|-----------------|
E|-------------|-----------------------------------|-----------------|


E|--------5------5-----------5---|
B|-5--------6---------5--------6-|
G|-----7------7----7-------7-----|
D|---7-------------------7-------|
A|-------------------------------|
E|-------------------------------|
  • 1
  • 2
  • 3
  • 4
  • 5
  • 6
  • 7
  • 8
  • 9
  • 10
  • 11
  • 12
    Acordes para:
      Composição: Roger WatersColaboração e revisão:

      0 comentários

        mostrar mais comentários

        Conseguiu tocar?

        35tocaram3ainda não

        Grave um vídeo tocando Hey You e mande pra gente!

        00:00 / 00:00
        outros vídeos desta música
        repetirqualidadeautomática
        • automática
        Outro vídeos desta música
          00:00 / 00:00
          automática
          • automática
          2 versões de Tab de baixoexibiçõescontribuições
          1 versão de Tab de bateriaexibiçõescontribuições
          1 versão de Tab de gaitaexibiçõescontribuições
          1 versão de Partiturasformatodownloadscontribuição
          fecharplay/pause subir/descer velocidade
            acordes
            fechar
            OK
            Feedback