Cifra Club

Hey You

Pink Floyd

Cifra: Solo
exibições 25.649
Tom: G

E|------------------------------------------|
B|------------------------------------------|
G|-7b9~~r----7b9~~r----7b9~~r---------------|
D|------------------------------------------|
A|------------------------------------------|
E|------------------------------------------|


E|------------------------------------------|
B|------------------------------------------|
G|-7b9—b9rb~~---b9~~r/11b~------------------|
D|------------------------------------------|
A|------------------------------------------|
E|------------------------------------------|


E|------------------------------------------|
B|------------------------------------------|
G|-9--11--11b12r11~----9--11--11b12r11~-----|
D|------------------------------------------|
A|------------------------------------------|
E|------------------------------------------|


E|------------------------------------------|
B|------------------------------10-12-10-12-|
G|-9--11--11b12r11~----9--11-12-------------|
D|------------------------------------------|
A|------------------------------------------|
E|------------------------------------------|


E|------------------------------------------|
B|-12b13~----12b13-12b13-12b13~-------------|
G|------------------------------------------|
D|------------------------------------------|
A|------------------------------------------|
E|------------------------------------------|


E|------------------------------------------|
B|-b13r12-b13~----b13r12b13~----------------|
G|------------------------------------------|
D|------------------------------------------|
A|------------------------------------------|
E|------------------------------------------|


E|---------12-----------------12-15---------|
B|-15b17------15b17~----15b17-------15b17---|
G|------------------------------------------|
D|------------------------------------------|
A|------------------------------------------|
E|------------------------------------------|


E|-12-15-----------------------------12-----|
B|-------15b17~---b17r15p12-------12--------|
G|--------------------------14b16-----------|
D|------------------------------------------|
A|------------------------------------------|
E|------------------------------------------|


E|------------------------------------------|
B|-15b17~---15b17r--15b17r15b17r------------|
G|------------------------------------------|
D|------------------------------------------|
A|------------------------------------------|
E|------------------------------------------|


E|-14-15-17-19-17-19-19b20~~----------------|
B|------------------------------------------|
G|------------------------------------------|
D|------------------------------------------|
A|------------------------------------------|
E|------------------------------------------|


E|-b20r19b-b20~--b20r19p17--19b20-17-19b20~-|
B|------------------------------------------|
G|------------------------------------------|
D|------------------------------------------|
A|------------------------------------------|
E|------------------------------------------|


E|-19b20r19p17--19b20~---b20r19p17--19~-----|
B|------------------------------------------|
G|------------------------------------------|
D|------------------------------------------|
A|------------------------------------------|
E|------------------------------------------|
Acordes para:
    Composição: Roger WatersColaboração e revisão:
    • Vinícius Dias
    • Mateus Waldolato

    0 comentários

      mostrar mais comentários

      Conseguiu tocar?

      2tocaram0ainda não

      Grave um vídeo tocando Hey You e mande pra gente!

      00:00 / 00:00
      outros vídeos desta música
      repetirqualidadeautomática
      Outro vídeos desta música
        00:00 / 00:00
        automática
        Capítulos
        • Tocando Solo
        • Apresentação / Equipamentos
        • Configuração pedal
        • Tab 1 - 48 BPM
        • Tab 2 - 48 BPM
        • Tab 3 - 48 BPM
        • Tab 4 - 48 BPM
        • Tab 5 - 48 BPM
        • Tab 6 - 48 BPM
        • Tab 7 - 48 BPM
        • Tab 8 - 48 BPM
        • Tab 9 - 48 BPM
        • Tab 10 - 48 BPM
        • Tab 11 - 48 BPM
        • Tab 12 - 48 BPM
        • Encerramento
        OK