Notificações Amigos pendentes

      Pink Floyd

      Lost For Words

      86.404 exibições
      Tom: C
      Violão 1:
      
                               F               C                 F
      E|--------------|----------------|---------------------|---------------|
      B|--------------|----------------|---------------------|---------------|
      G|--------0-0h2-|--2-2--0--0h2---|--------------0--0h2-|--2-2--0--0h2--|
      D|----0h2-------|----------------|----------0h2--------|---------------|
      A|-3------------|----------------|-------3-------------|---------------|
      E|--------------|----------------|---------------------|---------------|
      
      
            C            F               Am      G               F      C
      E|----------------|-------------|------------------|----------------|
      B|----------------|-------------|------------------|----------------|
      G|----------0-0h2-|--2-2--0--2--|------------------|------------0---|
      D|------0h2-------|-------------|-0---0h2-0--------|--------0h2-----|
      A|---3------------|-------------|------------3--0--|-----3----------|
      E|----------------|-------------|------------------|----------------|
      
      
      Violão 2:
      
      
            F                   C           F
      E|---------------------------|-------------------------|
      B|-------8-------------------|-0h1-1--1----------------|
      G|---7/9----9p7-5--7p5---7/9-|-0h2-2--2p0----0---------|
      D|---------------------------|---3-3--3----3--0--0h2---|
      A|---------------------------|-------------------------|
      E|---------------------------|-------------------------|
      
      
            C                 F                       Am
      E|---------8p7--|-----------------------|------------|
      B|-------8------|-8/10--8---------------|------------|
      G|---7/9--------|----------9p7-5--7p5-5-|-7--7/9--5--|
      D|--------------|-----------------------|------------|
      A|--------------|-----------------------|------------|
      E|--------------|-----------------------|------------|
      
      
            G                   F                         F    C
      E|-----------------|---------------------------|--------------|
      B|-----------------|---------------------------|--------------|
      G|-4b6---5p4-------|---------------------------|--------------|
      D|------------5-3--|-5-5/7--5--5-5p3-0---------|--------------|
      A|-----------------|--------------------5p3-0--|--------------|
      E|-----------------|---------------------------|-3------------|
      
                                                           I was...
            F                       C/G
      I was spending my time in the doldrums
            F                       C/G
      I was caught in a cauldron of hate
             F              Am
      I felt persecuted and paralysed
                     G                          F
      I thought that everything else would just wait
            F                                  C/G
      While you are wasting your time on your enemies
      F                         C/G
      Engulfed in a fever of spite
         F                      Am
      Beyond your tunnel vision reality fades
           G                F
      Like shadows into the night
         F                   C/G
      To martyr yourself to caution
          F                C/G
      Is not going to help at all
             F                        Am
      Because there'll be no safety in numbers
       G                                F
      When the Right One walks out of the door
      
      ( D  F  Bb  Am  Bb  Dm  F  D )
      
              C                         G
      Can you see your days blighted by darkness?
            C                               G
      Is it true you beat your fists on the floor?
      C                      Em
      Stuck in a world of isolation
                D                  C
      While the ivy grows over the door
          C                    G
      So I open my doors to my enemies
            C                          G
      And I ask could we wipe the slate clean
         C                            Em
      But the tell me please go fuck myself
         D                    C
      You know you just can't win
      
      Solo 2:
      
                     C                G                   C
      E|--------|----------------|-------------------|-------------------------|
      B|--------|----------------|-------------------|-------------------------|
      G|--------|----------------|-------------------|-2/4------5/7-7--7--7h9--|
      D|----5h7-|-5/7--5-----5h7-|--------------5----|------5------------------|
      A|-5h7----|---------5h7----|-5/7--5--5h7---7-5-|-------------------------|
      E|--------|----------------|-------------------|-------------------------|
      
      
            G                C                   Em
      E|----------------|-------------------|-----------|
      B|------------8-7-|-------------------|-----------|
      G|-7--------7-----|-9---7-7h9---------|-----------|
      D|------7h9-------|-----------9p7-7-7-|-5-5h7-----|
      A|----------------|-------------------|--------7--|
      E|----------------|-------------------|-----------|
      
      
            D                          C              C
      E|--------------------------|-------------|---3/5-5--3--------|
      B|--------------------------|-------------|---3/5-5--3--3/5---|
      G|--------------------------|-------------|-------------2/4---|
      D|--------5/7---7--5--3--2--|-------------|-------------------|
      A|-7--7h9-------------------|-3--3--2-----|-------------------|
      E|--------------------------|----------3--|-------------------|
      
      
            G            C                              G
      E|------------|-------------10-10------------|-----12-12----|
      B|-3--3/5-5---|-------9/11-------12p10-------|--------------|
      G|-2--2/4-4---|--7/9------------------12p10--|-12-----------|
      D|------------|------------------------------|--------------|
      A|------------|------------------------------|--------------|
      E|------------|------------------------------|--------------|
      
      
            C                       Em                       D
      E|-12b14--9--------------|------------------------|-----------------------|
      B|----------12/10--10/12-|--12p10-10--7h8-7-------|-----------------------|
      G|-----------------------|-------------------9-7--|----------11p9---7/5---|
      D|-----------------------|------------------------|--7h9-7----------------|
      A|-----------------------|------------------------|-----------------------|
      E|-----------------------|------------------------|-----------------------|
      
      
            C                      C            C
      E|----------------------|------------|-------------------------|
      B|----------------------|------------|-------------------------|
      G|-7h9---7--------------|------------|-------7-----------------|
      D|---------9p7-7h9--7---|-5--------5-|-7h9------9p7-7--9p7-7---|
      A|----------------------|------5h7---|-------------------------|
      E|----------------------|------------|-------------------------|
      
      
            G                 C                       G
      E|-----------------|-----------------------|----------|
      B|---------------8-|--10p8---12-12---------|-12b14~---|
      G|-----------7/9---|-----------------------|----------|
      D|-5------5--------|-----------------------|----------|
      A|----5h7----------|-----------------------|----------|
      E|-----------------|-----------------------|----------|
      
      
            C             Em                    D
      E|-------------|---------------------|---------------------|
      B|-------8-7---|---------------------|---------------------|
      G|-----7-----9-|-7---7h9-------------|---------7-----------|
      D|-7h9---------|---------9p7-7-7--5--|-7--7/9--------5/7---|
      A|-------------|---------------------|-----------5h7-------|
      E|-------------|---------------------|---------------------|
      
      
            C             C          G          C           G
      E|-------------|----------|-----------|----------|--------|
      B|-------------|----------|-----------|----------|--------|
      G|-------------|----------|-----------|----------|--------|
      D|-7h9--7--5---|--4-4h5---|-4--2--0---|----------|--------|
      A|-------------|----------|-----------|-2--0-----|--------|
      E|-------------|----------|-----------|----------|-3------|
      
        Composição: David Gilmour / Polly SamsonColaboração e revisão:
        • Caio
        • Roger
        • Eduardo

        Comentários 13

        140 .
        • anderson anderson: Em 01/10/2015 22:12

          Um som bonito desse devia ter uma vídeo aula !!!

        • Avenger Avenger: Em 10/11/2014 01:15

          Video Aula !!!!

        • horus. horus.: Em 09/05/2014 07:00

          muito bom !! nao tem nada errado, foi glorificante aprender essa musica
          ! muito obrigado

        • gabriel gabriel: Em 01/05/2014 17:13

          Video aula por favor!!!!!

        • Rodrigo Rodrigo: Em 23/10/2013 15:51

          VIDEO AULA POR FAVOR

        • Caio Caio: Em 18/10/2013 14:20

          O q significa os parênteses??? por exemplo 4(5)4 , alguém pode me explicar???

          • Evaldo Evaldo: Em 03/07/2014 15:36

            é opcional tocar aquela nota ou não

        • hugo.daniel.796 hugo.daniel.796: Em 24/09/2013 17:28

          Dois solos de violão tão bons como estes, e não uma vídeo aula? Me ajuda a e Cifra Club!

        • cesar cesar: Em 10/08/2013 22:08

          video aula por favor

        • winche winche: Em 23/12/2012 15:39

          Eu queria pedir a vídeo aula dessa música, se possível, pois é uma das melhores que eu acho do Pink Floyd, desde já agradeço !!

        140 cancelar

        conseguiu tocar?

        • •••

        covers

        Grave um vídeo tocando Lost For Words e mande pra gente!

        Ex.: http://www.youtube.com/watch?v=0IvSvIwGdwk
        ver covers de outras músicas »
        0:00 / 0:00

        Capítulos

          2 versões de Guitar Proformatodownloadscontribuição
          1 versão de partiturasformatodownloadscontribuição
          play/pausefechar subir/descer velocidade
          6ª corda E5ª corda A4ª corda D3ª corda G2ª corda B1ª corda E
            acordes
            publicidade
            fechar
            ok