Enviar cifraEntrar

Lost For Words

Pink Floyd

Cifra: Principal
exibições 100.178
Tom: C
[Violão 1]

    F   C   F
E|--------------|----------------|---------------------|---------------|
B|--------------|----------------|---------------------|---------------|
G|--------0---2-|--2-2--0--------|--------------0----2-|--2-2--0-------|
D|----0h2-------|----------0h2---|----------0h2--------|----------0h2--|
A|-3------------|----------------|-------3-------------|---------------|
E|--------------|----------------|---------------------|---------------|


   C   F   Am   G   F   C
E|----------------|-------------|------------------|----------------|
B|----------------|-------------|------------------|----------------|
G|----------0---2-|--2-2--0-----|------------------|------------0---|
D|------0h2-------|----------0h2|-0---0h2-0--------|--------0h2-----|
A|---3------------|-------------|------------3--0--|-----3----------|
E|----------------|-------------|------------------|----------------|


[Violão 2]


   F   C   F
E|--------------------------------|-------------------------|
B|-------8------------------------|-0h1-1--1----------------|
G|---7/9----9\7-5--7p5------5--7b9|-0h2-2--2p0----0---------|
D|---------------------7p5--------|-----3--3----3--0--0h2---|
A|--------------------------------|-------------------------|
E|--------------------------------|-------------------------|


   C   F   Am
E|---------8p7--|-----------------------|-----------------------------|
B|-------8------|-8/10--8---------------|-----------------------------|
G|---7/9--------|----------9\7-5--7p5---|--------5-7b9--5-------------|
D|--------------|-----------------------|----7p5----------------------|
A|--------------|-----------------------|-----------------------------|
E|--------------|-----------------------|-----------------------------|


    G    F    F     C
E|-------------------------------------------------------------------|
B|-------------------------------------------------------------------|
G|---4b5-r4----------------------------------------------------------|
D|-------------5---5--------5-----5/7---5---5------------------------|
A|--------------------5/7----------------------7/5---3---5p3------3--|
E|------------------------------------------------------------5------|

                                                   
        F                      C/G
I was spending my time in the doldrums
       F                       C/G
I was caught in a cauldron of hate
        F              Am
I felt persecuted and paralysed
               G                           F
I thought that everything else would just wait
       F                                  C/G
While you are wasting your time on your enemies
F                        C/G
Engulfed in a fever of spite
   F                       Am
Beyond your tunnel vision reality fades
       G               F
Like shadows into the night
    F                   C/G
To martyr yourself to caution
    F                C/G
Is not going to help at all
      F                       Am
Because there'll be no safety in numbers
  G                               F
When the Right One walks out of the door

[D  F  Bb  Am  Bb  Dm  F  D]

         C                         G
Can you see your days blighted by darkness?
        C                               G
Is it true you beat your fists on the floor?
  C                     Em
Stuck in a world of isolation
          D                   C
While the ivy grows over the door
   C                     G
So I open my doors to my enemies
      C                         G
And I ask could we wipe the slate clean
 C                              Em
But the tell me please go fuck myself
  D                      C
You know you just can't win

[Solo]


      C   G  C
E|--------|----------------|-------------------|-------------------------|
B|--------|----------------|-------------------|-------------------------|
G|--------|----------------|-------------------|-2/4------5/7-7--7--7h9--|
D|----5h7-|-5/7--5-----5h7-|--------------5----|------5------------------|
A|-5h7----|---------5h7----|-5/7--5--5h7---7-5-|-------------------------|
E|--------|----------------|-------------------|-------------------------|


   G     C   Em
E|----------------|-------------------|----------------------------------|
B|------------8-7-|-------------------|----------------------------------|
G|-7--------7-----|-9---7-7h9---------|----------------------------------|
D|------7h9-------|-----------9p7-7-7-|-5-5h7----------------------------|
A|----------------|-------------------|--------7-------------------------|
E|----------------|-------------------|----------------------------------|


   D      C    C
E|--------------------------|-------------|---3/5-5--3--------|
B|--------------------------|-------------|---3/5-5--3--3/5---|
G|--------------------------|-------------|-------------2/4---|
D|--------5/7---7--5--3--2--|-------------|-------------------|
A|-7--7h9-------------------|-3--3--2-----|-------------------|
E|--------------------------|----------3--|-------------------|


    G    C     G
E|------------|-------------10-10------------|-----12-12----|
B|-3--3/5-5---|-------9/11-------12p10-------|--------------|
G|-2--2/4-4---|--7/9------------------12p10--|-12-----------|
D|------------|------------------------------|--------------|
A|------------|------------------------------|--------------|
E|------------|------------------------------|--------------|


   C     Em     D
E|-12b14--9--------------|------------------------|-----------------------|
B|----------12/10--10/12-|--12p10-10--7h8-7-------|-----------------------|
G|-----------------------|-------------------9-7--|----------11p9---7/5---|
D|-----------------------|------------------------|--7h9-7----------------|
A|-----------------------|------------------------|-----------------------|
E|-----------------------|------------------------|-----------------------|


    C     C        C
E|----------------------|------------|-------------------------|
B|----------------------|------------|-------------------------|
G|-7h9---7--------------|------------|-------7-----------------|
D|---------9p7-7h9--7---|-5--------5-|-7h9------9p7-7--9p7-7---|
A|----------------------|------5h7---|-------------------------|
E|----------------------|------------|-------------------------|


    G    C      G
E|-----------------|-----------------------|----------|
B|---------------8-|--10p8---12-12---------|-12b14~---|
G|-----------7/9---|-----------------------|----------|
D|-5------5--------|-----------------------|----------|
A|----5h7----------|-----------------------|----------|
E|-----------------|-----------------------|----------|


    C      Em     D
E|-------------|---------------------|---------------------|
B|-------8-7---|---------------------|---------------------|
G|-----7-----9-|-7---7h9-------------|---------7-----------|
D|-7h9---------|---------9p7-7-7--5--|-7--7/9--------5/7---|
A|-------------|---------------------|-----------5h7-------|
E|-------------|---------------------|---------------------|


    C     C    G   C   G
E|-------------|----------|-----------|----------|--------|
B|-------------|----------|-----------|----------|--------|
G|-------------|----------|-----------|----------|--------|
D|-7h9--7--5---|--4-4h5---|-4--2--0---|----------|--------|
A|-------------|----------|-----------|-2--0-----|--------|
E|-------------|----------|-----------|----------|-3------|
  • 1
  • 2
  • 3
  • 4
  • 5
  • 6
  • 7
  • 8
  • 9
  • 10
  • 11
  • 12
    Acordes para:
      Composição: David Gilmour / Polly SamsonColaboração e revisão:

      0 comentários

        mostrar mais comentários

        Conseguiu tocar?

        26tocaram4ainda não

        Grave um vídeo tocando Lost For Words e mande pra gente!

        00:00 / 00:00
        outros vídeos desta música
        repetirqualidadeautomática
        • automática
        Outro vídeos desta música
          00:00 / 00:00
          automática
          • automática
          Acordes para:violão e guitarra
          dificuldadeexibiçõescontribuições
          2 versões de Guitar Proformatodownloadscontribuição
          1 versão de Partiturasformatodownloadscontribuição
          fecharplay/pause subir/descer velocidade
            Acordes para:violão e guitarra
            acordes
            fechar
            OK