Enviar cifraEntrar

Money

Pink Floyd

Cifra: Principal
exibições 314.448
Tom: B
[Riff 1]
   

E|-------------------------------------|
B|-------------------------------------|
G|-----4-------------------------------|
D|--------4----------------------------|
A|--2--------2-----------2--5----------|
E|----------------2--5-----------------|


[Riff 2]


E|-------------------------------------|
B|-------------------------------------|
G|-------------------------------------|
D|----------------2--------------------|
A|--5-2-5-2-----2---5--2---------------|
E|----------2-5------------------------|


 Bm [Riff 1]
Money, get away
 [Riff 2]
Get a good job with more pay and your OK
 Bm [Riff 1]
Money It's a gas
  [Riff 2]
Grab that cash with both hands and make a stash

[Refrão]


   F#m       Fm   Em                       Bm
E|---------------------------------------|
B|---------------------------------------|
G|---------------------------------------|
E|-4----------4-3--2--------------0t2--0-|
B|---4------4--------2-------0-2---------|
G|-----2--5------------0--3--------------|


 F#m                    Fm   Em
New car, caviar, four stars daydream
  Em                          Bm
Think I'll buy me a football team

 Bm (riff 1)
Money, get back
(riff 2)
I'm all right Jack keep your hands of my stack
Bm (riff 1)
Money It's a hit
(riff 2)
Don't give me that do goody good bullshit

[Refrão]


   F#m  Fm  Em  Bm
E|---------------------------------------|
B|---------------------------------------|
G|---------------------------------------|
E|-4----------4-3--2--------------0t2--0-|
B|---4------4--------2-------0-2---------|
G|-----2--5------------0--3--------------|


            F#m               Fm   Em
I'm in the hi fidelity fist class travelling se
Em                           Bm
And I think, I need, a Lear jet

 Bm [Riff 1]
Money, It's a crime
 [Riff 2]
Share It fairly but don't take a slice of my pie
 Bm [Riff 1]
Money so they say
[Riff 2]
Is the root of all evil today



   F#m  Fm  Em  Bm
E|---------------------------------------|
B|---------------------------------------|
G|---------------------------------------|
E|-4----------4-3--2--------------0t2--0-|
B|---4------4--------2-------0-2---------|
G|-----2--5------------0--3--------------|


 F#m                                         Fm  Em
But if you ask for a rise It's no surprise that they're
 Em           Bm
Giving none away
  • 1
  • 2
  • 3
  • 4
  • 5
  • 6
  • 7
  • 8
  • 9
  • 10
  • 11
  • 12
    Acordes para:
      Composição: Roger WatersColaboração e revisão:
      • Flávio Henriques
      • Anrhy Macêdo

      0 comentários

        mostrar mais comentários

        Conseguiu tocar?

        30tocaram2ainda não

        Grave um vídeo tocando Money e mande pra gente!

        00:00 / 00:00
        outros vídeos desta música
        repetirqualidadeautomática
        • automática
        Outro vídeos desta música
          00:00 / 00:00
          automática
          • automática
          fecharplay/pause subir/descer velocidade
            Acordes para:violão e guitarra
            acordes
            fechar
            OK