Cifra Club

Money

Pink Floyd

Cifra: Principal
exibições 327.353
Tom: D
[Riff 1]
   
E|-------------------------------------|
B|-------------------------------------|
G|-----4-------------------------------|
D|--------4----------------------------|
A|--2--------2-----------2--5----------|
E|----------------2--5-----------------|

[Riff 2]

E|-------------------------------------|
B|-------------------------------------|
G|-------------------------------------|
D|----------------2--------------------|
A|--5-2-5-2-----2---5--2---------------|
E|----------2-5------------------------|

 Bm [Riff 1]
Money, get away
 [Riff 2]
Get a good job with more pay and your OK
 Bm [Riff 1]
Money It's a gas
  [Riff 2]
Grab that cash with both hands and make a stash

[Refrão]

     F#m       Fm   Em                       Bm
E|---------------------------------------|
B|---------------------------------------|
G|---------------------------------------|
E|-4----------4-3--2--------------0t2--0-|
B|---4------4--------2-------0-2---------|
G|-----2--5------------0--3--------------|

 F#m                    Fm   Em
New car, caviar, four stars daydream
  Em                          Bm
Think I'll buy me a football team

 Bm (riff 1)
Money, get back
(riff 2)
I'm all right Jack keep your hands of my stack
Bm (riff 1)
Money It's a hit
(riff 2)
Don't give me that do goody good bullshit

[Refrão]

     F#m  Fm  Em  Bm
E|---------------------------------------|
B|---------------------------------------|
G|---------------------------------------|
E|-4----------4-3--2--------------0t2--0-|
B|---4------4--------2-------0-2---------|
G|-----2--5------------0--3--------------|

            F#m               Fm   Em
I'm in the hi fidelity fist class travelling se
Em                           Bm
And I think, I need, a Lear jet

 Bm [Riff 1]
Money, It's a crime
 [Riff 2]
Share It fairly but don't take a slice of my pie
 Bm [Riff 1]
Money so they say
[Riff 2]
Is the root of all evil today

  F#m  Fm  Em  Bm
E|---------------------------------------|
B|---------------------------------------|
G|---------------------------------------|
E|-4----------4-3--2--------------0t2--0-|
B|---4------4--------2-------0-2---------|
G|-----2--5------------0--3--------------|

 F#m                                         Fm  Em
But if you ask for a rise It's no surprise that they're
 Em           Bm
Giving none away

[Solo]

E|-----------------------------10---------------12b--------|
B|----------10b--7-10-------12----12-12---12-12-----12-12--|
G|--9b-7--------------9b-7---------------------------------|
D|---------------------------------------------------------|
A|---------------------------------------------------------|
E|---------------------------------------------------------|

E|------------------7----------10-12-12b-------10----------|
B|----------------7---10-10/12-----------12-12-------------|
G|--9b-7-9-----9b------------------------------------------|
D|---------9-----------------------------------------------|
A|---------------------------------------------------------|
E|---------------------------------------------------------|

E|--12b-10-12----------------------------------------------|
B|------------12-10----------------------------------------|
G|------------------9-7------------------------7-7---------|
D|----------------------9-7-----------7-9p7--------9-------|
A|--------------------------7-5---7/9-------9--------------|
E|------------------------------7--------------------------|

E|-------7----------------10-12-12b-10---------------------|
B|-----7---10-10/12-12-12--------------12------------------|
G|--9b-----------------------------------------------------|
D|---------------------------------------------------------|
A|---------------------------------------------------------|
E|---------------------------------------------------------|

E|--14b-14-12-10-------------------------------------------|
B|---------------12-10--5-7--------------------------------|
G|---------------------------------------------------------|
D|---------------------------------------------------------|
A|---------------------------------------------------------|
E|---------------------------------------------------------|

E|------------------------------------------------7--------|
B|--10b-10-8-7-------------7---9---10-10-10-------7--------|
G|-------------9-7-6-5-4---7---9---11-11-11----9b----------|
D|---------------------------9---9-------------------------|
A|---------------------------------------------------------|
E|---------------------------------------------------------|

E|--7------------10----------------------------------------|
B|--7---12-12-12------7------------------------------------|
G|--------------------7-9b-7-9------7----------------------|
D|-----------------------------9----7--7-9-----------------|
A|---------------------------------------------------------|
E|---------------------------------------------------------|

E|-----7------------------------------------10-------------|
B|--------7--7---------------------------12----------------|
G|--9b----9b-9b---9b-7-9b-9b--9p0-7b-----------------------|
D|-----------------------------------9---------------------|
A|---------------------------------------------------------|
E|---------------------------------------------------------|

E|-----10-12b-12b--12p10-----------------------------------|
B|--10-------------------10-10-10--------------------------|
G|--------------------------------9b--9b-------------------|
D|---------------------------------------------------------|
A|---------------------------------------------------------|
E|---------------------------------------------------------|

E|---------------------------------------------------------|
B|----------------------7---9------------------------------|
G|--4-2-----------------7---9------------------------------|
D|------5-4-2-------------9---9----------------------------|
A|------------5-4-3-2--------------------------------------|
E|---------------------------------------------------------|

E|---------------------------------------22b--22-22-22-----|
B|------------------19----------------19---------------22b-|
G|-----------19-21b----21b--19-21--------------------------|
D|-----19-21----------------------21-----------------------|
A|--21-----------------------------------------------------|
E|---------------------------------------------------------|

E|---------------------------------------------------------|
B|---------------------------------------------------------|
G|-----19-21b-19b----21b--21-19----------------------------|
D|--21------------21------------21----14-12-14-16----------|
A|---------------------------------------------------------|
E|---------------------------------------------------------|

E|----------------22b--22-22-22----------------------------|
B|-------------19---------------22b--22b-22b---------------|
G|-----19-------------------------------------21b-19--21---|
D|--21----21-----------------------------------------------|
A|---------------------------------------------------------|
E|---------------------------------------------------------|

E|-------------------22----------22b-22-22-22--------------|
B|--19--19---22b-22b----22b---19--------------22b--19------|
G|--21b-21b------------------------------------------------|
D|---------------------------------------------------------|
A|---------------------------------------------------------|
E|---------------------------------------------------------|

E|---------------------------------------------------------|
B|--22p19-------------------------10b-10-8-7---------------|
G|--------21b-19--16p14----14----------------9-7-6-5-4-----|
D|----------------------16----16---------------------------|
A|---------------------------------------------------------|
E|---------------------------------------------------------|
Acordes para:
    Composição: Roger WatersColaboração e revisão:
    • valdecir rossi
    • Flávio Henriques
    • Anrhy Macêdo

    0 comentários

      mostrar mais comentários

      Conseguiu tocar?

      31tocaram2ainda não

      Grave um vídeo tocando Money e mande pra gente!

      00:00 / 00:00
      outros vídeos desta música
      repetirqualidadeautomática
      Outro vídeos desta música
        00:00 / 00:00
        automática
        Capítulos
        • Tocando Solo
        • Configuração do pedal
        • Solo 1 - Parte 1
        • Solo 1 - Parte 2
        • Solo 1 - Parte 3
        • Solo 1 - Parte 4
        • Solo 1 - Parte 5
        • Solo 1 - Parte 6
        • Solo 1 - Parte 7
        • Solo 1 - Parte 8
        • Solo 1 - Parte 9
        • Solo 1 - Parte 10
        • Tocando Solo 2
        • Solo 2 - Parte 1
        • Solo 2 - Parte 2
        • Solo 2 - Parte 3
        • Solo 2 - Parte 4
        • Solo 2 - Parte 5
        • Solo 2 - Parte 6
        • Solo 2 - Parte 7
        • Solo 2 - Parte 8
        • Tocando Solo 3
        • Solo 3 - Parte 1
        • Solo 3 - Parte 2
        • Solo 3 - Parte 3
        • Solo 3 - Parte 4
        • Solo 3 - Parte 5
        • Solo 3 - Parte 6
        • Solo 3 - Parte 7
        • Solo 3 - Parte 8
        • Solo 3 - Parte 9
        • Encerramento
        OK