Enviar cifraEntrar

Time

Pink Floyd

Cifra: Principal
exibições 404.798
Tom: D
Afinação: E A D G B e

Intro (0:54 – 2:28) (c/ pouca distorção):


E|-----------------------------------------|
B|-----------------------------------------|
G|-----------------------------------------|
D|-----------------------------------------|
A|-----------------------------------------|
E|--0----2----0----2----0----0h1--2----0---|


E|--------------------------|
B|--------------------------|
G|--------------------------|
D|------------------2-------|
A|-------------2h4----------|
E|--0h1--2-------------2----|


E|---------------------------------------------|
B|---------------------------------------------|
G|---------------------------------------------|
D|---------------------------------------------|
A|-------0-------------------------------------|
E|--2---------2b4-2---0----0h1--2----2---------|


Riff 1:


E|------------------|
B|-3-x-2-x-x-2-2-2--|
G|-2-x-2-x-x-2-2-2--|
D|-2-x-2-x-x-2-2-2--|
A|-0-x-0-x-x-0-0-0--|
E|------------------|


Riff 2:


E|------------------------|
B|--2----2----------------|
G|--4b6--4b6r4p2--4-------|
D|------------------2-2~--|
A|------------------------|
E|------------------------|


Riff 3:


E|--4/5--5--7-7/9-9-9-7--|
B|-----------------------|
G|--5/6--6--7-7/9-9-9-7--|
D|-----------------------|
A|-----------------------|
E|-----------------------|


Riff 4:


E|----------0--|
B|----------0--|
G|----------1--|
D|----------2--|
A|----------2--|
E|--2b3-2-0-0--|


Riff 5:


E|-----------|
B|--7-5-3-2--|
G|-----------|
D|--7-6-4-2--|
A|-----------|
E|-----------|


Riff 6:


E|-------5---7-7-5--|
B|------------------|
G|--5/6------7-7-6--|
D|------------------|
A|------------------|
E|------------------|


  
Solo:

  Parte 1:


E|-------------------------------------------5------------------------|  
B|--------------------------------------5~-7----7p5-------------------|  
G|-------4b6---4b6r4p2-4b6-4~-------4/6------------6-----4b6r4p2-4b6--|  
D|-2/4~-----------------------4b5-4------------------4~---------------|  
A|--------------------------------------------------------------------|  
E|--------------------------------------------------------------------|  


E|-----9-9b10r9--------------------------------|  
B|--------------10b12~-10-9-9b10r9-------------|  
G|-4/9----------------------------9b11-b11~r9--|  
D|---------------------------------------------|  
A|---------------------------------------------|  
E|---------------------------------------------|  


  Parte 2:                                  


E|-------------------17--------------------------------------------|  
B|---------14-17b19~----17b19r17-17-17-17-------14b15r14-14~-------|  
G|------14--------------------------------16b18-------------16-16--|  
D|-9/16------------------------------------------------------------|  
A|-----------------------------------------------------------------|  
E|-----------------------------------------------------------------|  


 


E|------------------------|  
B|-17-17------------------|  
G|-------16b18r16-14------|  
D|-------------------16~--|  
A|------------------------|  
E|------------------------|  


  Parte 3:


E|----17b19--17-----------------------------------------------|  
B|-14-----------17b19~--17-17---------------------------------|  
G|----------------------------16b18r16p14-16b18r16-14-16b18~--|  
D|------------------------------------------------------------|  
A|------------------------------------------------------------|  
E|------------------------------------------------------------|  

  

E|----19b21r19p17-19b21r-19-19--16------------------------------------------|  
B|-14------------------------------17----17/19-19--17-17-17-17/14-14-14-14\-|  
G|------------------------------------16------------------------------------|  
D|--------------------------------------------------------------------------|  
A|--------------------------------------------------------------------------|  
E|--------------------------------------------------------------------------|  


  Parte 4:  


E|--------------------------------------------------------|  
B|-------7-10/12-10--9/10-9~\-5--7/9--7\5-7---------------|  
G|-----6-------------------------------------9\6/9-6-4b6--|  
D|-4-7----------------------------------------------------|  
A|--------------------------------------------------------|  
E|--------------------------------------------------------|  


E|--------------------------------------------|  
B|--------------------------------------------|  
G|-6b7~-6-4\2-4b6--r4p2-4--2-----4------------|  
D|----------------------------4/6--6\4-2------|  
A|--------------------------------------------|  
E|-----------------------------------------0--|  




Letra:

Intro

F#m                                      A       Riff 1
ticking away the moments that make up a dull day
 
     E                                         F#m    Riff 2
you fritter and waste the hours in an off hand way

 F#m                                         A        Riff 3
kicking around on a piece of ground in your home town

 E                                                F#m
waiting for someone or something to show you the way



D7+
tired of lying in the sunshine

A7+
staying home to watch the rain

D7+
you are young and life is long
 
    A7+
and there is time to kill today

D7+
and then one day you find

C#m7
ten years have got behind you

Bm7
no one told you when to run

Riff 4                  E
you missed the starting gun


Solo: Base: F#m  A  E  F#m  F#m  A  E  F#m


 
  F#m                                               A               Riff 5
and you run and you run to catch up with the sun, but it's sinking
 
   E                                      F#m      Riff 2
and racing around to come up behind you again
 
  F#m                                            A         Riff 6
the sun is the same in the relative way, but you're older
 
 E                                            F#m
and shorter of breath and one day closer to death



D7+
every year is getting shorter

A7+
never seem to find the time

D7+
plans that either come to naught

A7+
or half a page of scribbed lines

D7+
hanging on a quiet desperation

C#m7
is the english way

Bm7
the time is gone, the song is over

B7(9+)                   B7(9-)
thought i'd something more to say...


Em9    A7 (2x)


Em9           A7     A7/4   A7                           Obs.: essa parte possui alguns riffs,
  Home, Home again

Em9                          A7                            e você pode improvisá-los.
  I'd like to be here when I can.

Em9                         A7
  When I come home cold and tired.

Em9                                     A7
  It's good to warm my bones beside the fire.


C7M/G
Far away, across the field, 

Bm7
The tolling of the iron bell

F7M/C
Call the faithful to their knees,

G6/D               D7(9+) D7(9-) Bm
To hear the softly spoken magic spells



----------------- Acordes -----------------

F#m = 2 4 4 2 2 2
A = X 0 2 2 2 0
E = 0 2 2 1 0 0
D7+ = X X 0 2 2 2
A7+ = X 0 2 1 2 0
C#m7 = X 4 6 4 5 4
Bm7 = X 2 4 2 3 2
F = 1 3 3 2 1 1
Em9 = 0 2 4 0 0 0
A7 = X 0 2 0 2 0
A7/4 = X 0 2 0 3 0
C7M/G = 3 2 2 0 0 0
F7M/C = X 3 3 2 1 0
G6/D = X 5 5 4 3 0
D7(9+) = X 5 4 5 6 X
D7(9-) = X 5 4 5 4 X
Bm = X 2 4 4 3 2
B7(9+) = X 2 1 2 3 X
B7(9-) = X 2 1 2 1 X
  • 1
  • 2
  • 3
  • 4
  • 5
  • 6
  • 7
  • 8
  • 9
  • 10
  • 11
  • 12
    Acordes para:

      0 comentários

        mostrar mais comentários

        Conseguiu tocar?

        48tocaram2ainda não

        Grave um vídeo tocando Time e mande pra gente!

        00:00 / 00:00
        outros vídeos desta música
        repetirqualidadeautomática
        • automática
        Outro vídeos desta música
          00:00 / 00:00
          automática
          • automática
          1 versão de Tab de baixoexibiçõescontribuições
          1 versão de Tab de bateriaexibiçõescontribuições
          2 versões de Guitar Proformatodownloadscontribuição
          fecharplay/pause subir/descer velocidade
            acordes
            fechar
            OK
            Feedback