Cifra Club

Time

Pink Floyd

Cifra: Principal
exibições 461.840
Tom: D
[Intro]

E|-----------------------------------------|
B|-----------------------------------------|
G|-----------------------------------------|
D|-----------------------------------------|
A|-----------------------------------------|
E|--0----2----0----2----0----0h1--2----0---|

   

E|-----------------------------------------|
B|-----------------------------------------|
G|-----------------------------------------|
D|------------------2----------------------|
A|-------------2h4-------------------------|
E|--0h1--2-------------2-------------------|

   

E|-----------------------------------------|
B|-----------------------------------------|
G|-----------------------------------------|
D|-----------------------------------------|
A|-------0---------------------------------|
E|--2---------2b4-2---0----0h1--2----2-----|

   
[Riff 1]

E|-----------------------------------------|
B|-3-x-2-x-x-2-2-2-------------------------|
G|-2-x-2-x-x-2-2-2-------------------------|
D|-2-x-2-x-x-2-2-2-------------------------|
A|-0-x-0-x-x-0-0-0-------------------------|
E|-----------------------------------------|

   
[Riff 2]

E|-----------------------------------------|
B|--2----2---------------------------------|
G|--4b6--4b6r4p2--4------------------------|
D|------------------2-2~-------------------|
A|-----------------------------------------|
E|-----------------------------------------|

   
[Riff 3]

E|--4/5--5--7-7/9-9-9-7--------------------|
B|-----------------------------------------|
G|--5/6--6--7-7/9-9-9-7--------------------|
D|-----------------------------------------|
A|-----------------------------------------|
E|-----------------------------------------|

   
[Riff 4]

E|----------0------------------------------|
B|----------0------------------------------|
G|----------1------------------------------|
D|----------2------------------------------|
A|----------2------------------------------|
E|--2b3-2-0-0------------------------------|

   
[Riff 5]

E|-----------------------------------------|
B|--7-5-3-2--------------------------------|
G|-----------------------------------------|
D|--7-6-4-2--------------------------------|
A|-----------------------------------------|
E|-----------------------------------------|

   
[Riff 6]

E|-------5---7-7-5-------------------------|
B|-----------------------------------------|
G|--5/6------7-7-6-------------------------|
D|-----------------------------------------|
A|-----------------------------------------|
E|-----------------------------------------|

     
 F#m                                     A       Riff 1
Ticking away the moments that make up a dull day
       E                                         F#m    Riff 2
You fritter and waste the hours in an off hand way
 F#m                                         A        Riff 3
Kicking around on a piece of ground in your home town
 E                                                F#m
Waiting for someone or something to show you the way

 D7+
Tired of lying in the sunshine
 A7+
Staying home to watch the rain
 D7+
You are young and life is long
A7+
And there is time to kill today
D7+
And then one day you find
 C#m7
Ten years have got behind you
 Bm7
No one told you when to run
Riff 4                   E
You missed the starting gun

[Solo] F#m  A  E  F#m  F#m  A  E  F#m

[Parte 1]

E|------------------------------------------|
B|------------------------------------------|
G|------------------------------------------|
D|-/4~--------------------------------------|
A|------------------------------------------|
E|------------------------------------------|

 
[Parte 2]

E|------------------------------------------|
B|------------------------------------------|
G|-4b6rb6~---4b6r4b6r4b6r4p2-4p2-4~---------|
D|------------------------------------------|
A|------------------------------------------|
E|------------------------------------------|

 

E|-------------------------5----------------|
B|--------------5~-7p5h7p5-5--7\------------|
G|----------4/6-----------------------------|
D|-4b5r4~------------------------4~---------|
A|------------------------------------------|
E|------------------------------------------|

 
[Parte 3]

E|-------------------9--9b10r9--------------|
B|-----------------------------10b12~r------|
G|-4b6~r4p2-4b6~-4/9------------------------|
D|------------------------------------------|
A|------------------------------------------|
E|------------------------------------------|

 

E|------------------------------------------|
B|-10p9-9~-9b10r9---------------------------|
G|-----------------9b11--b11~~r-------------|
D|------------------------------------------|
A|------------------------------------------|
E|------------------------------------------|

 
[Parte 4]

E|------------------------17----------------|
B|----------14-17b19~--------17b19r---------|
G|-------14---------------------------------|
D|-14/16------------------------------------|
A|------------------------------------------|
E|------------------------------------------|

 

E|-12h14p12--12-----------------------------|
B|----------------------14------------------|
G|--------------16b18~-----16b18r16b18r-----|
D|------------------------------------------|
A|------------------------------------------|
E|------------------------------------------|

 

E|------------------------------------------|
B|--------------------17--17----------------|
G|-16b18r16--16-16~----------16b18r16-14b---|
D|----------------------------------------16|
A|------------------------------------------|
E|------------------------------------------|

 
[Parte 5]

E|----17b19--17-----------------------------|
B|-14------------17b19~---\17---------------|
G|-----------------------------18\16p14-----|
D|------------------------------------------|
A|------------------------------------------|
E|------------------------------------------|

 

E|----------------------19b21r--19b21r--21~-|
B|-------------------17---------------------|
G|-16p14-14-16b18~--------------------------|
D|------------------------------------------|
A|------------------------------------------|
E|------------------------------------------|

 
[Parte 6]

E|-16---------------------------------------|
B|----17----17/19-19~-17h19p17-17\14--14-14~|
G|-------16---------------------------------|
D|------------------------------------------|
A|------------------------------------------|
E|------------------------------------------|

 
[Parte 7]

E|------------------------------------------|
B|----~--7-10/12-10~--9-10-9\5--5-5~--------|
G|---2/7------------------------------------|
D|-4----------------------------------------|
A|------------------------------------------|
E|------------------------------------------|

 
[Parte 8]

E|------------------------------------------|
B|-7/9-9b---7\5-7~---5\2/5-2----------------|
G|------------------------------4b6~~-------|
D|------------------------------------------|
A|------------------------------------------|
E|------------------------------------------|

 
[Parte 9]

E|------------------------------------------|
B|------------------------------------------|
G|-4b8r--b6r4-4p2-4b6~r4p2--4--2~-----4-----|
D|--------------------------------4/6---6\4-|
A|------------------------------------------|
E|------------------------------------------|

 

E|------------------------------------------|
B|------------------------------------------|
G|------------------------------------------|
D|-2~~--------------------------------------|
A|------------------------------------------|
E|------------------------------------------|

  
F#m                                               A               Riff 5
And you run and you run to catch up with the sun, but it's sinking
 E                                         F#m      Riff 2
And racing around to come up behind you again
   F#m                                            A         Riff 6
The sun is the same in the relative way, but you're older
 E                                             F#m
And shorter of breath and one day closer to death

D7+
Every year is getting shorter
 A7+
Never seem to find the time
  D7+
Plans that either come to naught
A7+
Or half a page of scribbed lines
 D7+
Hanging on a quiet desperation
C#m7
Is the english way
  Bm7
The time is gone, the song is over
  B7(9+)                   B7(9-)
Thought i'd something more to say

[Em9  A7]

Em9           A7     A7/4   A7
  Home, Home again
Em9                           A7
  I'd like to be here when I can
Em9                          A7
  When I come home cold and tired
Em9                                      A7
  It's good to warm my bones beside the fire
 C7M/G
Far away, across the field, 
  Bm7
The tolling of the iron bell
 F7M/C
Call the faithful to their knees,
 G6/D               D7(9+) D7(9-)    Bm
To hear the softly spoken magic spells
Acordes para:

    0 comentários

      mostrar mais comentários

      Conseguiu tocar?

      53tocaram2ainda não

      Grave um vídeo tocando Time e mande pra gente!

      00:00 / 00:00
      outros vídeos desta música
      repetirqualidadeautomática
      Outro vídeos desta música
        00:00 / 00:00
        automática
        Capítulos
        • Tocando a música
        • Dicas Iniciais / Equipamentos
        • Solo - Parte 1 de 9
        • Solo - Parte 2 de 9
        • Solo - Parte 3 de 9
        • Solo - Parte 4 de 9
        • Solo - Parte 5 de 9
        • Solo - Parte 6 de 9
        • Solo - Parte 7 de 9
        • Solo - Parte 8 de 9
        • Solo - Parte 9 de 9
        • Encerramento
        • Ficha Técnica
        OK