Enviar cifraEntrar

Try

Pink

Cifra: Principal
exibições 104.802
Tom: D

E|10---9----7-------|--7-----------------------------------------------------|
B|------------------|-------10----7------------------------------------------|
G|------------------|---------------(-9---7)---------------------------------|
D|------------------|--------------------------------------------------------|
A|------------------|--------------------------------------------------------|
E|------------------|--------------------------------------------------------|


Bm           G                    D         A
Ever wonder 'bout what he's doing
Bm           G            D     A
How it all turned to lies
Bm           G                    D         A
Sometimes I think that it's better
Bm            G            D    A
To never ask why

( B   G   D   A   B  G   D )


E|10---9----7-------|--7-----------------------------------------------------|
B|------------------|-------10----7------------------------------------------|
G|------------------|---------------(-9---7)---------------------------------|
D|------------------|--------------------------------------------------------|
A|------------------|--------------------------------------------------------|
E|------------------|--------------------------------------------------------|


               G                                    D
Where there is desire there is gonna be a flame
               A                                     Bm
Where there is a flame someone's bound to get burned
                 G                                           D
But just because it burns doesn't mean you're gonna die
                A                       Bm
You got to get up and Try, Try,Try
                G                       D
You got to get up and Try, Try,Try
                A                           Bm
You got to get up and Try, Try,Try

Yeah
Yeah, Yeah

( Bm   G   D   A   Bm  G   D ) Refrão:( G  D  A  Bm)


Funny how the heart can be deceiving
More than just a couple Times
Why do we fall in love so easy
Even when it's not right

Where there is desire there is gonna be a flame
Where there is a flame someone's bound to get burned
But just because it burns doesn't mean you're gonna die

You got to get up and Try, Try,Try (x3)

Ever worry that it might be ruined
And does it make you want to cry
When you're up and you're doing what you're doing
Are you just getting by
Tell me are you just getting by, by, by

Where there is desire there is gonna be a flame
Where there is a flame someone's bound to get burned
But just because it burns doesn't mean you're gonna die

You got to get up and Try, Try,Try (x7)

Ahhh Ahhh Ohhh
Ahhh Ahhh Ohhh

You got to get up and Try, Try,Try (x2)
  • 1
  • 2
  • 3
  • 4
  • 5
  • 6
  • 7
  • 8
  • 9
  • 10
  • 11
  • 12
    Acordes para:
      Composição: Linda Perry / PinkColaboração e revisão:

      0 comentários

        mostrar mais comentários

        Conseguiu tocar?

        25tocaram0ainda não

        Grave um vídeo tocando Try e mande pra gente!

        00:00 / 00:00
        outros vídeos desta música
        repetirqualidadeautomática
        • automática
        Outro vídeos desta música
          00:00 / 00:00
          automática
          • automática
          Acordes para:violão e guitarra
          dificuldadeexibiçõescontribuições
          fecharplay/pause subir/descer velocidade
            Acordes para:violão e guitarra
            acordes
            fechar
            OK