Cifra Club

Try

P!nk

Tab de baixo: Principal
Selo Cifra Club: esta cifra foi revisada para atender aos critérios oficiais da nossa Equipe de Qualidade.
tom: Afinação:
[Intro]  

G|-----------------|-----------------|
D|-----------------|-----------------|
A|-2-2-2-2-2-----5-|-5-5-5-5-5-----2-| (9x) 
E|-----------3-3---|-----------5-5---|

G|-----------------|-----------------|
D|-----------------|-----------------|
A|-2-2-2-2-2-----5-|-5-5-5-5-5---5-5-| 
E|-----------3-3---|-----------5-----|

[Refrão 1]

G|-------------------------------------|
D|-------------------------------------|
A|----------55555555----------22222222-| (2x)
E|-33333333----------55555555----------|

G|---------------------------|
D|---------------------------|
A|----------55555555---------| 
E|-33333333----------555555x-|

[Verso]

G|-----------------|-----------------|
D|-----------------|-----------------|
A|-2-2-2-2-2-----5-|-5-5-5-5-5-----2-| (7x)
E|-----------3-3---|-----------5-5---|

G|-----------------|-----------------|
D|-----------------|-----------------|
A|-2-2-2-2-2-----5-|-5-5-5-5-5---5-5-| 
E|-----------3-3---|-----------5-----|

[Refrão 2]

G|-------------------------------------|
D|-------------------------------------|
A|----------55555555----------22222222-| (2x)
E|-33333333----------55555555----------|

G|----------------------------|
D|----------------------------|
A|----------55555555----------|
E|-33333333----------555555x--|

[Ponte]

G|-----------------|-----------------|
D|-----------------|-----------------|
A|-2-2-2-2-2-----5-|-5-5-5-5-5-----2-| (6x)
E|-----------3-3---|-----------5-5---|

G|-----------------|-----------------|
D|-----------------|-----------------|
A|-2-2-2-2-2-----5-|-5-5-5-5-5-5-5-5-| 
E|-----------3-3---|-----------------|

[Refrão 3]

G|-------------------------------------|
D|-------------------------------------|
A|----------55555555----------22222222-| (4x)
E|-33333333----------55555555----------|

G|----------------------------|
D|----------------------------|
A|----------55555555----------|
E|-33333333----------555555x--|

[Final]
 
G|-----------------|-----------------|
D|-----------------|-----------------|
A|-2-2-2-2-2-----5-|-5-5-5-5-5-----2-| (6x)
E|-----------3-3---|-----------5-5---|
Outros vídeos desta música
    542 exibições

    Afinação da cifra

    Afinador online

    0 comentários

    Ver todos os comentários

    Entre para o Cifra Club PRO

    Tenha acesso a benefícios exclusivos no App e no Site

    • Chega de anúncios

    • Badges exclusivas

    • Mais recursos no app do Afinador

    • Atendimento Prioritário

    • Aumente seu limite de lista

    • Ajude a produzir mais conteúdo

    Cifra Club Pro

    Aproveite o Cifra Club com benefícios exclusivos e sem anúncios
    Cifra Club Pro
    Aproveite o Cifra Club com benefícios exclusivos e sem anúncios
    OK