Cifra Club

Dead Battery

Pitchshifter

Cifra: Principal (violão e guitarra)
Selo Cifra Club: esta cifra foi revisada para atender aos critérios oficiais da nossa Equipe de Qualidade.
tom: C
Guitare 1



     E  E  E   E  E   E  E  E      E  E   E   E   E   E   E   E     
E||----------------------------|----------------------------------||
B||----------------------------|----------------------------------||
G||----------------------------|---------------------------------*||
D||--0--x--x--12-----11-----x--|---x--x---x---x------------------*||
A||-------------------------x--|---x--x---x---x--11--11--12--12---||
D||----------------------------|----------------------------------||


   E  E  E   E  E   E  E  E      E  E   E   E   E   E   E   E     
-----------------------------|----------------------------------||
-----------------------------|----------------------------------||
*----------------------------|---------------------------------*||
*--0--x--x--12-----11-----x--|---x--x---x---x------------------*||
--------------------------x--|---x--x---x---x--11--11--12--12---||
-----------------------------|----------------------------------||

   E  E  E   E  E   E  E  E      E  E   E   E   E   E   E   E   8x
-----------------------------|----------------------------------||
-----------------------------|----------------------------------||
*----------------------------|---------------------------------*||
*--0--x--x--12-----11-----x--|---x--x---x---x------------------*||
--------------------------x--|---x--x---x---x--11--11--12--12---||
-----------------------------|----------------------------------||

  Q    E  Q    Q    E     Q    E  Q    Q    E     Q    E  Q    Q    E   
-----------------------|-----------------------|-----------------------|
-----------------------|-----------------------|-----------------------|
-----------------------|-----------------------|-----------------------|
--7----L--7----7----7--|--3----L--3----3----3--|--7----L--7----7----7--|
--7----L--7----7----7--|--3----L--3----3----3--|--7----L--7----7----7--|
--7----L--7----7----7--|--3----L--3----3----3--|--7----L--7----7----7--|

   Q    E   Q     Q     E       Q    E  Q    E  Q     
---------------------------||------------------------|
---------------------------||------------------------|
---------------------------||*-----------------------|
--10----L--10----10----10--||*--0----L--3----0--9----|
--10----L--10----10----10--||---0----L--3----0--9----|
--10----L--10----10----10--||---0----L--3----0--9----|

  E  E  E  E  E  E  E  E     Q    E  Q    E  Q       E  E  E  E  E  E  E  E     
--------------------------|-----------------------|---------------------------||
--------------------------|-----------------------|---------------------------||
--------------------------|-----------------------|--------------------------*||
--x--x--0-----9--9--------|--0----L--3----0--9----|--x--x--0-----9--9--------*||
--x--x--0-----9--9--------|--0----L--3----0--9----|--x--x--0-----9--9---------||
--x--x--0-----9--9--------|--0----L--3----0--9----|--x--x--0-----9--9---------||

   E  E  E   E  E   E  E  E      E  E   E   E   E   E   E   E   4x
-----------------------------|----------------------------------||
-----------------------------|----------------------------------||
*----------------------------|---------------------------------*||
*--0--x--x--12-----11-----x--|---x--x---x---x------------------*||
--------------------------x--|---x--x---x---x--11--11--12--12---||
-----------------------------|----------------------------------||

  Q    E  Q    Q    E     Q    E  Q    Q    E     Q    E  Q    Q    E   
-----------------------|-----------------------|-----------------------|
-----------------------|-----------------------|-----------------------|
-----------------------|-----------------------|-----------------------|
--7----L--7----7----7--|--3----L--3----3----3--|--7----L--7----7----7--|
--7----L--7----7----7--|--3----L--3----3----3--|--7----L--7----7----7--|
--7----L--7----7----7--|--3----L--3----3----3--|--7----L--7----7----7--|

   Q    E   Q     Q     E       Q    E  Q    E  Q     
---------------------------||------------------------|
---------------------------||------------------------|
---------------------------||*-----------------------|
--10----L--10----10----10--||*--0----L--3----0--9----|
--10----L--10----10----10--||---0----L--3----0--9----|
--10----L--10----10----10--||---0----L--3----0--9----|

  E  E  E  E  E  E  E  E     Q    E  Q    E  Q       E  E  E  E  E  E  E  E     
--------------------------|-----------------------|---------------------------||
--------------------------|-----------------------|---------------------------||
--------------------------|-----------------------|--------------------------*||
--x--x--0-----9--9--------|--0----L--3----0--9----|--x--x--0-----9--9--------*||
--x--x--0-----9--9--------|--0----L--3----0--9----|--x--x--0-----9--9---------||
--x--x--0-----9--9--------|--0----L--3----0--9----|--x--x--0-----9--9---------||

   W                      W                   W                 
-----------------------|-------------------|-------------------|
-----------------------|-------------------|-------------------|
*----------------------|-------------------|-------------------|
*--0pbr----------------|--L----------------|--L----------------|
-----------------------|-------------------|-------------------|
-----------------------|-------------------|-------------------|

  Q    E  Q    E  E  E        W                      W                 
-------------------------||-----------------------|-------------------|
-------------------------||-----------------------|-------------------|
------------------------*||*----------------------|-------------------|
------------------------*||*--0pbr----------------|--L----------------|
--2----L--3----3--2--3---||-----------------------|-------------------|
-------------------------||-----------------------|-------------------|

  W                   Q    E  Q    E  E  E        E  E  E  E  E  E  E  E   
-------------------|-------------------------||---------------------------|
-------------------|-------------------------||---3--3--3--3--3--3--3--3--|
-------------------|------------------------*||*--2--2--2--2--2--2--2--2--|
--L----------------|------------------------*||*--------------------------|
-------------------|--2----L--3----3--2--3---||---------------------------|
-------------------|-------------------------||---------------------------|

  E  E  E  E  E  E  E  E     E  E  E  E  E  E  E  E   
--------------------------|--------------------------|
--3--3--3--3--3--3--3--3--|--4--4--4--4--4--4--4--4--|
--2--2--2--2--2--2--2--2--|--3--3--3--3--3--3--3--3--|
--------------------------|--------------------------|
--------------------------|--------------------------|
--------------------------|--------------------------|

  E  E  E  E  E  E  E  E        E  E  E   E  E   E  E  E   
-----------3--4--3--3--4---||-----------------------------|
--4--4--4------------------||-----------------------------|
--3--3--3-----------------*||*----------------------------|
--------------------------*||*--0--x--x--12-----11-----x--|
---------------------------||--------------------------x--|
---------------------------||-----------------------------|

   E  E   E   E   E   E   E   E   4x   E  E  E   E  E   E  E  E   
----------------------------------||-----------------------------|
----------------------------------||-----------------------------|
---------------------------------*||*----------------------------|
---x--x---x---x------------------*||*--0--x--x--12-----11-----x--|
---x--x---x---x--11--11--12--12---||--------------------------x--|
----------------------------------||-----------------------------|

   E  E   E   E   E   E   E   E   8x  Q    E  Q    Q    E   
----------------------------------||-----------------------|
----------------------------------||-----------------------|
---------------------------------*||-----------------------|
---x--x---x---x------------------*||--7----L--7----7----7--|
---x--x---x---x--11--11--12--12---||--7----L--7----7----7--|
----------------------------------||--7----L--7----7----7--|

  Q    E  Q    Q    E     Q    E  Q    Q    E      Q    E   Q     Q     E   
-----------------------|-----------------------|---------------------------|
-----------------------|-----------------------|---------------------------|
-----------------------|-----------------------|---------------------------|
--3----L--3----3----3--|--7----L--7----7----7--|--10----L--10----10----10--|
--3----L--3----3----3--|--7----L--7----7----7--|--10----L--10----10----10--|
--3----L--3----3----3--|--7----L--7----7----7--|--10----L--10----10----10--|

    Q    E  Q    E  Q       E  E  E  E  E  E  E  E     Q    E  Q    E  Q     
|------------------------|--------------------------|-----------------------|
|------------------------|--------------------------|-----------------------|
|*-----------------------|--------------------------|-----------------------|
|*--0----L--3----0--9----|--x--x--0-----9--9--------|--0----L--3----0--9----|
|---0----L--3----0--9----|--x--x--0-----9--9--------|--0----L--3----0--9----|
|---0----L--3----0--9----|--x--x--0-----9--9--------|--0----L--3----0--9----|

  E  E  E  E  E  E  E  E   4x  W                   W                 
---------------------------||-------------------|-------------------|
---------------------------||-------------------|-------------------|
--------------------------*||-------------------|-------------------|
--x--x--0-----9--9--------*||--0----------------|--L----------------|
--x--x--0-----9--9---------||--0----------------|--L----------------|
--x--x--0-----9--9---------||--0----------------|--L----------------|

  W                   W                  
-------------------|-------------------||
-------------------|-------------------||
-------------------|-------------------||
--L----------------|--L----------------||
--L----------------|--L----------------||
--L----------------|--L----------------||

Guitare 2



     E  E  E   E  E   E  E  E      E  E   E   E   E   E   E   E     
E||----------------------------|----------------------------------||
B||----------------------------|----------------------------------||
G||----------------------------|---------------------------------*||
D||--0--x--x--12-----11-----x--|---x--x---x---x------------------*||
A||-------------------------x--|---x--x---x---x--11--11--12--12---||
D||----------------------------|----------------------------------||


   E  E  E   E  E   E  E  E      E  E   E   E   E   E   E   E     
-----------------------------|----------------------------------||
-----------------------------|----------------------------------||
*----------------------------|---------------------------------*||
*--0--x--x--12-----11-----x--|---x--x---x---x------------------*||
--------------------------x--|---x--x---x---x--11--11--12--12---||
-----------------------------|----------------------------------||

   E  E  E   E  E   E  E  E      E  E   E   E   E   E   E   E   8x
-----------------------------|----------------------------------||
-----------------------------|----------------------------------||
*----------------------------|---------------------------------*||
*--0--x--x--12-----11-----x--|---x--x---x---x------------------*||
--------------------------x--|---x--x---x---x--11--11--12--12---||
-----------------------------|----------------------------------||

  E  E  E  E  E  E  E  E     E  E  E  E  E  E  E  E   
--0--0--0--0--0--0--0--0--|--------------------------|
--------------------------|--1--1--1--1--1--1--1--1--|
--------------------------|--------------------------|
--------------------------|--------------------------|
--------------------------|--------------------------|
--------------------------|--------------------------|

  E  E  E  E  E  E  E  E     E  E  E  E  E  E  E  E       Q    E  Q    E  Q     
--0--0--0--0--0--0--0--0--|--3--3--3--3--3--3--3--3--||------------------------|
--------------------------|--------------------------||------------------------|
--------------------------|--------------------------||*-----------------------|
--------------------------|--------------------------||*--0----L--3----0--9----|
--------------------------|--------------------------||---0----L--3----0--9----|
--------------------------|--------------------------||---0----L--3----0--9----|

  E  E  E  E  E  E  E  E     Q    E  Q    E  Q       E  E  E  E  E  E  E  E     
--------------------------|-----------------------|---------------------------||
--------------------------|-----------------------|---------------------------||
--------------------------|-----------------------|--------------------------*||
--x--x--0-----9--9--------|--0----L--3----0--9----|--x--x--0-----9--9--------*||
--x--x--0-----9--9--------|--0----L--3----0--9----|--x--x--0-----9--9---------||
--x--x--0-----9--9--------|--0----L--3----0--9----|--x--x--0-----9--9---------||

   E  E  E   E  E   E  E  E      E  E   E   E   E   E   E   E   4x
-----------------------------|----------------------------------||
-----------------------------|----------------------------------||
*----------------------------|---------------------------------*||
*--0--x--x--12-----11-----x--|---x--x---x---x------------------*||
--------------------------x--|---x--x---x---x--11--11--12--12---||
-----------------------------|----------------------------------||

  E  E  E  E  E  E  E  E     E  E  E  E  E  E  E  E   
--0--0--0--0--0--0--0--0--|--------------------------|
--------------------------|--1--1--1--1--1--1--1--1--|
--------------------------|--------------------------|
--------------------------|--------------------------|
--------------------------|--------------------------|
--------------------------|--------------------------|

  E  E  E  E  E  E  E  E     E  E  E  E  E  E  E  E       Q    E  Q    E  Q     
--0--0--0--0--0--0--0--0--|--3--3--3--3--3--3--3--3--||------------------------|
--------------------------|--------------------------||------------------------|
--------------------------|--------------------------||*-----------------------|
--------------------------|--------------------------||*--0----L--3----0--9----|
--------------------------|--------------------------||---0----L--3----0--9----|
--------------------------|--------------------------||---0----L--3----0--9----|

  E  E  E  E  E  E  E  E     Q    E  Q    E  Q       E  E  E  E  E  E  E  E     
--------------------------|-----------------------|---------------------------||
--------------------------|-----------------------|---------------------------||
--------------------------|-----------------------|--------------------------*||
--x--x--0-----9--9--------|--0----L--3----0--9----|--x--x--0-----9--9--------*||
--x--x--0-----9--9--------|--0----L--3----0--9----|--x--x--0-----9--9---------||
--x--x--0-----9--9--------|--0----L--3----0--9----|--x--x--0-----9--9---------||

   W                   W                                     
--------------------|-------------------|-------------------|
--------------------|-------------------|-------------------|
*-------------------|-------------------|-------------------|
*-------------------|-------------------|-------------------|
--------------------|-------------------|-------------------|
--------------------|-------------------|-------------------|

  W                      E  E  E   E  E   E  Q       W                 
--------------------||----------------------------|-------------------|
--------------------||----------------------------|-------------------|
-------------------*||*---------------------------|-------------------|
-------------------*||*--0--x--x--12-----11-------|-------------------|
--------------------||----------------------------|-------------------|
--------------------||----------------------------|-------------------|

                      W                      E  E  E  E  E  E  E  E   
-------------------|--------------------||---------------------------|
-------------------|--------------------||---3--3--3--3--3--3--3--3--|
-------------------|-------------------*||*--2--2--2--2--2--2--2--2--|
-------------------|-------------------*||*--------------------------|
-------------------|--------------------||---------------------------|
-------------------|--------------------||---------------------------|

  E  E  E  E  E  E  E  E     E  E  E  E  E  E  E  E   
--------------------------|--------------------------|
--3--3--3--3--3--3--3--3--|--4--4--4--4--4--4--4--4--|
--2--2--2--2--2--2--2--2--|--3--3--3--3--3--3--3--3--|
--------------------------|--------------------------|
--------------------------|--------------------------|
--------------------------|--------------------------|

  E  E  E  E  E  E  E  E        E  E  E   E  E   E  E  E   
---------------------------||-----------------------------|
--4--4--4--4--4--4--4--4---||-----------------------------|
--3--3--3--3--3--3--3--3--*||*----------------------------|
--------------------------*||*--0--x--x--12-----11-----x--|
---------------------------||--------------------------x--|
---------------------------||-----------------------------|

   E  E   E   E   E   E   E   E   4x   E  E  E   E  E   E  E  E   
----------------------------------||-----------------------------|
----------------------------------||-----------------------------|
---------------------------------*||*----------------------------|
---x--x---x---x------------------*||*--0--x--x--12-----11-----x--|
---x--x---x---x--11--11--12--12---||--------------------------x--|
----------------------------------||-----------------------------|

   E  E   E   E   E   E   E   E   8x  E  E  E  E  E  E  E  E   
----------------------------------||--0--0--0--0--0--0--0--0--|
----------------------------------||--------------------------|
---------------------------------*||--------------------------|
---x--x---x---x------------------*||--------------------------|
---x--x---x---x--11--11--12--12---||--------------------------|
----------------------------------||--------------------------|

  E  E  E  E  E  E  E  E     E  E  E  E  E  E  E  E   
--------------------------|--0--0--0--0--0--0--0--0--|
--1--1--1--1--1--1--1--1--|--------------------------|
--------------------------|--------------------------|
--------------------------|--------------------------|
--------------------------|--------------------------|
--------------------------|--------------------------|

  E  E  E  E  E  E  E  E       Q    E  Q    E  Q       E  E  E  E  E  E  E  E   
--3--3--3--3--3--3--3--3--||------------------------|--------------------------|
--------------------------||------------------------|--------------------------|
--------------------------||*-----------------------|--------------------------|
--------------------------||*--0----L--3----0--9----|--x--x--0-----9--9--------|
--------------------------||---0----L--3----0--9----|--x--x--0-----9--9--------|
--------------------------||---0----L--3----0--9----|--x--x--0-----9--9--------|

  Q    E  Q    E  Q       E  E  E  E  E  E  E  E   4x  W                 
-----------------------|---------------------------||-------------------|
-----------------------|---------------------------||-------------------|
-----------------------|--------------------------*||-------------------|
--0----L--3----0--9----|--x--x--0-----9--9--------*||--0----------------|
--0----L--3----0--9----|--x--x--0-----9--9---------||--0----------------|
--0----L--3----0--9----|--x--x--0-----9--9---------||--0----------------|

  W                   W                   W                  
-------------------|-------------------|-------------------||
-------------------|-------------------|-------------------||
-------------------|-------------------|-------------------||
--L----------------|--L----------------|--L----------------||
--L----------------|--L----------------|--L----------------||
--L----------------|--L----------------|--L----------------||
Outros vídeos desta música
    266 exibições
      • ½ Tom
      • A
      • Bb
      • B
      • C
      • Db
      • D
      • Eb
      • E
      • F
      • F#
      • G
      • Ab
    • Adicionar à lista

    Afinação da cifra

    Afinador online

      0 comentários

      Ver todos os comentários

      Entre para o Cifra Club PRO

      Tenha acesso a benefícios exclusivos no App e no Site

      • Chega de anúncios

      • Badges exclusivas

      • Mais recursos no app do Afinador

      • Atendimento Prioritário

      • Aumente seu limite de lista

      • Ajude a produzir mais conteúdo

      Cifra Club Pro

      Aproveite o Cifra Club com benefícios exclusivos e sem anúncios
      Cifra Club Pro
      Aproveite o Cifra Club com benefícios exclusivos e sem anúncios
      OK