Cifra Club

Aprenda

Brinquedo Torto

Pitty

Cifra: Versão 2 (violão e guitarra)
tom: C
A afinação da guitarra é com a 6ª corda em D(ré)


Com Distorção:
e|-----------55555555555555553333333355555555--------|
B|-----------55555555555555553333333355555555--------|
G|---------------------------------------------------|   X 2
D|---------------------------------------------------|
A|---------------------------------------------------|
D|---------------------------------------------------|

Com Distorção:
e|-----------------12---12---------------------------|
B|------------10-------------13---10-----------------|
G|---9---12------------------------------------------|   X 6
D|---------------------------------------------------|
A|---------------------------------------------------|
D|---------------------------------------------------|

Ao final ele faz um arranjo diferente, mas ainda não tirei exatamente como é, mas faço assim
Com Distorção:
e|---12-------------12-------------12-------------12-----12----12----12~~~~-|
B|--------13---10--------13---10--------13---10-------10----10----10--------|
G|--------------------------------------------------------------------------|   
D|--------------------------------------------------------------------------|
A|--------------------------------------------------------------------------|
D|--------------------------------------------------------------------------|
--
Sem Distorção:
e|-----------55555555555555553333333355555555--------|
B|-----------55555555555555553333333355555555--------|   Ele faz essa sequencia a musica 
G|---------------------------------------------------|   toda (exceto no refrão) e com 
D|---------------------------------------------------|   algumas variações, podendo ser tocanto
A|---------------------------------------------------|    cada 5 separadamente e 3 separademente tb
D|---------------------------------------------------|

Aos 00:55 e abafado:
Sem distorção:
e|---------------------------------------------------|
B|---------------------------------------------------|
G|---------------------------------------------------|   X 2
D|---------------------------------------------------|
A|-----------7777777777777775555555577777777---------|
D|-----------7777777777777775555555577777777---------|

Com distorção:
e|---------------------------------------------------|
B|---------------------------------------------------|
G|---------------------------------------------------|   X 2
D|---------------------------------------------------|
A|-----------7777777777777777777777777777777---------|
D|-----------7777777777777777777777777777777---------|


Aos 01:36
Sem distorção:
e|---------------------------------------------------------------|
B|---------------------------------------------------------------|
G|---9---7------------7------------------------------------------|   X 2
D|-----------10---9-------10---9---7---10---9---7-------7--------|
A|-------------------------------------------------10------------|
D|---------------------------------------------------------------|

Sem distorção:
e|---------------------------------------------------|
B|---------------------------------------------------|
G|---------------------------------------------------|   X 2
D|---------------------------------------------------|
A|-----------7777777777777775555555577777777---------|
D|-----------7777777777777775555555577777777---------|

Refrão:
e|---------------------------------------------------|
B|---------------------------------------------------|
G|---------------------------------------------------|   X 4
D|---------------------------------------------------|
A|-----------7777777777777775555555577777777---------|
D|-----------7777777777777775555555577777777---------|

Repita a sequência toda novamente, é quase idêntico.
As variações que eu for percebendo vou atualizando...



Refrão final:
e|---------------------------------------------------|
B|---------------------------------------------------|
G|---------------------------------------------------|   X 3
D|---------------------------------------------------|
A|-----------7777777777777775555555577777777---------|
D|-----------7777777777777775555555577777777---------|

e|------------------------------------------------------------|
B|------------------------------------------------------------|
G|------------------------------------------------------------|  
D|------------------------------------------------------------|
A|-----------7777777777777775555555555555555555555557~~~~-----|
D|-----------7777777777777775555555555555555555555557~~~~-----|

Ao final da música, ele faz a sequência abaixo, com um efeito de tremulo bem suave...

e|-----------------------------------------------------------------|
B|------------------------------------------------------12----10---|
G|---9---7------------7---------------------------------12----9----|   X 2
D|-----------10---9-------10---9---10--10---9---7-------12----7----|
A|---7----------------7-----------------7----------10---12----7----|
D|------------------------------------------------------------7----|

to my very friend Karen
Composição de Pitty
Colaboração e revisão:
  • Farofa
  • Luís Santos
32.433 exibições
    • ½ Tom
    • A
    • Bb
    • B
    • C
    • Db
    • D
    • Eb
    • E
    • F
    • F#
    • G
    • Ab
  • Adicionar à lista

    0 comentários

    Ver todos os comentários

    Conseguiu tocar?

    0 Tocaram 0 Ainda não

    Grave um vídeo tocando Brinquedo Torto e nos envie!

    00:00 / 00:00
    outros vídeos desta música
    repetir qualidade Automático
    Outros vídeos desta música
    00:00 / 00:00
    Automático

    Cifra Club Pro

    Aproveite o Cifra Club com benefícios exclusivos e sem anúncios
    Cifra Club Pro
    Aproveite o Cifra Club com benefícios exclusivos e sem anúncios
    OK