Cifra Club

Aprenda

Eu Quero Sempre Mais

Pitty

Cifra: Principal (violão e guitarra)
Tom: C
[Intro]  C  C7+  Am  G

E|-----------------------------------------------------------|
B|-1---------------------------------------------------------|
G|-0---0---0--------0---0-----------------0------------------|
D|-2---0h2-0-2-2----0h2-0--2-2--2-0h2-0---0------------------|
A|-3-3-------3-3--3--------3-0--0-0---0---2------------------|
E|--------------------------------------0-3------------------|

[Violão 2]

E|------------------------------------------------------------|
B|--1-1--0-1-3-1-0--1-1--0-1-3-1-0----1--0-1-3-1-0------------|
G|--0-0--0-0-0-0-0--0-0--0-0-0-0-0----2--2-2-2-2-2---0-0----0-|
D|--2-2--2-2-2-2-2--2-2--2-2-2-2-2--2-2--2-2-2-2-2---0-0----0-|
A|--3-3-------------3-3-------------0-0------------2-2-2--2-2-|
E|-------------------------------------------------3-3-3--3-3-|

      C                    F
A minha vida , eu preciso mudar
      G
Todo dia
         C
Pra escapar
      C7+             F              G
Da rotina dos meus desejos por seus beijos
          C7+                   C
Dos meus sonhos eu procuro acordar
      F           G
E perseguir meus sonhos
          C7+            C
Más a realidade que vem depois
             F
Não é bem aquela
             G
Que eu planejei

F  G
    Eu quero  sempre mais
F  G
    Eu quero  sempre mais
F  G                          C
    Eu espero sempre mais de ti

C  C7+  Am  G

 C7+
Por isso hoje
                  C
Eu estou tão triste
           F            G          C
Porque querer está tão longe de poder
            F             G    C
E quem eu quero está tão longe
F  G          F  G
    Longe de mim
             F  G
Longe de mim
             F  G
Longe de mim
             F  G
Longe de mim

E|---10-10/12--12--12-------------------|
B|--------------------------------------|
G|---7--7/-9---9---9--------------------|
D|--------------------------------------|
A|--------------------------------------|
E|--------------------------------------|

E|---15-/--12/-10-12--------------------|
B|--------------------------------------|
G|---12-/--9/--7---9--------------------|
D|--------------------------------------|
A|--------------------------------------|
E|--------------------------------------|

E|-10/12/-10---10h12---------------------|
B|-------------------13--10-------------|
G|--7/-9/-7------------------------------|
D|--------------------------------------|
A|--------------------------------------|
E|--------------------------------------|

E|---13--12-10-------------------8------|
B|--------------------------8-10----8---|
G|---10--9--7---------7-9-10------------|
D|---------------9-10-------------------|
A|--------------------------------------|
E|--------------------------------------|

E|--------8------8------8-10-10/12/10-10-8-|
B|---8h10---8h10---8-10--------------------|
G|-----------------------------------------|
D|-----------------------------------------|
A|-----------------------------------------|
E|-----------------------------------------|

E|-12-12-12-10-10-10-10-8-8-8-7-7-7-----|
B|--------------------------------------|
G|--------------------------------------|
D|--------------------------------------|
A|--------------------------------------|
E|--------------------------------------|

E|--------------------------------------|
B|--10-10-10-8-8-8-----8----------------|
G|------------------10------------------|
D|--------------------------------------|
A|--------------------------------------|
E|--------------------------------------|

E|--------------------------------------|
B|-8/10-10-8/10-8/10-8/10-10/8--8/10-----|
G|-7/9--9--7/9--7/9--7/9---9/7--7/9-----|
D|--------------------------------------|
A|--------------------------------------|
E|--------------------------------------|

E|--------------------------------------|
B|-10-10-8/10-10-10/8-------------------|
G|-9--9--7/9--9--9-/7--------------7-9--|
D|------------------------5-7-9-10------|
A|-------------------5-7----------------|
E|--------------------------------------|

E|--12-12-12-12-12-12-12-12-------------|
B|--13-13-13-13-13-13-13-13-------------|
G|--------------------------------------|
D|--------------------------------------|
A|--------------------------------------|
E|--------------------------------------|

E|-10-10-10--8-8-8-7-7-7----------------|
B|-8--8---8---------------10-10-8-------|
G|--------------------------------------|
D|--------------------------------------|
A|--------------------------------------|
E|--------------------------------------|

E|-------------------------3------------|
B|-------8-----------------3------------|
G|---7/9---7----5--------0--------------|
D|------------7---7----0----------------|
A|--------------------2-----------------|
E|--------------------3-----------------|
Composição de Edgard Scandurra
Colaboração e revisão:
245.054 exibições
    • ½ Tom
    • A
    • Bb
    • B
    • C
    • Db
    • D
    • Eb
    • E
    • F
    • F#
    • G
    • Ab
  • Adicionar à lista

    0 comentários

    Mostrar mais comentários

    Conseguiu tocar?

    17 Tocaram 1 Ainda não

    Grave um vídeo tocando Eu Quero Sempre Mais e mande pra gente!

    00:00 / 00:00
    outros vídeos desta música
    repetir qualidade Automático
    Outros vídeos desta música
    00:00 / 00:00
    Automático

    Cifra Club Pro

    Aproveite o Cifra Club com benefícios exclusivos e sem anúncios
    Cifra Club Pro
    Aproveite o Cifra Club com benefícios exclusivos e sem anúncios
    OK