Cifra Club

Máscara

Pitty

Cifra: Principal
exibições 681.837
Tom: A#
Afinação: Drop-D  D-A-D-G-B-E

Introdução: D5  F5  D5  Ab5
            D5  F5  D5  Eb5
            D5  F5  D5  Ab5
            D5  F5  D5  Eb5

     D5      F5           D5     Ab5
E|-----------------------------------------------------|
B|-----------------------------------------------------|
G|-----------------------------------------------------|
D|-0--0--0-3--0-5/6-5-3-0--0--/6--6-6--6--6------------|
A|-0--0--0-3--0-5/6-5-3-0--0--/6--6-6--6--6------------|
D|-0--0--0-3--0-5/6-5-3-0--0--/6--6-6--6--6------------|

     D5      F5           D5    Eb5
E|-----------------------------------------------------|
B|-----------------------------------------------------|
G|-----------------------------------------------------|
D|-0--0--0-3--0-5/6-5-3-0--0--1--1-1--1--1-------------|
A|-0--0--0-3--0-5/6-5-3-0--0--1--1-1--1--1-------------|
D|-0--0--0-3--0-5/6-5-3-0--0--1--1-1--1--1-------------|

     D5      F5           D5     Ab5
E|-----------------------------------------------------|
B|-----------------------------------------------------|
G|-----------------------------------------------------|
D|-0--0--0-3--0-5/6-5-3-0--0--/6--6-6--6--6------------|
A|-0--0--0-3--0-5/6-5-3-0--0--/6--6-6--6--6------------|
D|-0--0--0-3--0-5/6-5-3-0--0--/6--6-6--6--6------------|

     D5      F5           D5    Eb5
E|-----------------------------------------------------|
B|-----------------------------------------------------|
G|-----------------------------------------------------|
D|-0--0--0-3--0-5/6-5-3-0--0--1--1---------------------|
A|-0--0--0-3--0-5/6-5-3-0--0--1--1---------------------|
D|-0--0--0-3--0-5/6-5-3-0--0--1--1---------------------|


Primeira Parte:

Dm
   Diga quem você é, me diga
                 Dm
Me fale sobre a sua estrada
                          
Me conte sobre a sua vida


Riff da Estrofe:

E|---------5-------------------------------------------|
B|-3-6-3-6---6-3-6-------------------------------------|
G|-----------------------------------------------------|
D|-----------------------------------------------------|
A|-----------------------------------------------------|
D|-----------------------------------------------------|


Variação do Riff Principal:

   D5           F5
  P.M . . . . . .  .  .  .  .
E|-----------------------------------------------------|
B|-----------------------------------------------------|
G|-----------------------------------------------------|
D|-----------------------------------------------------|
A|-0--0-0-0-0-0-3--0-/6--5--3--------------------------|
D|-0--0-0-0-0-0-3--0-/6--5--3--------------------------|

   D5           Ab5
  P.M . . . . . .  . .  .  .
E|-----------------------------------------------------|
B|-----------------------------------------------------|
G|-----------------------------------------------------|
D|-----------------------------------------------------|
A|-0--0-0-0-0-0-6--6-6--6--6---------------------------|
D|-0--0-0-0-0-0-6--6-6--6--6---------------------------|

   D5           F5
  P.M . . . . . .  .  .  .  .
E|-----------------------------------------------------|
B|-----------------------------------------------------|
G|-----------------------------------------------------|
D|-----------------------------------------------------|
A|-0--0-0-0-0-0-3--0-/6--5--3--------------------------|
D|-0--0-0-0-0-0-3--0-/6--5--3--------------------------|

   D5           Eb5
  P.M . . . . . .  . .  .  .
E|-----------------------------------------------------|
B|-----------------------------------------------------|
G|-----------------------------------------------------|
D|-----------------------------------------------------|
A|-0--0-0-0-0-0-1--1-1--1--1---------------------------|
D|-0--0-0-0-0-0-1--1-1--1--1---------------------------|


 Dm
Tira a máscara que cobre o seu rosto
                   Dm
Se mostre e eu descubro se eu gosto

Do seu verdadeiro jeito de ser


Pré-Refrão:

     D5         Eb5
Ninguém merece ser 
 D5
Só mais um bonitinho
 D5           Eb5  D5
Nem transparecer,     consciente
   D5             Eb5
Inconsequente sem    
     D5
Se preocupar em ser 
D5              Eb5  D5
   Adulto ou criança
                      D5
O importante é ser você


Refrão:

               F5                   G5
Mesmo que seja    estranho, seja você
                Bb5(9)
Mesmo que seja bizarro
               D5
Bizarro, bizarro
               F5                   G5
Mesmo que seja    estranho, seja você
               Bb5(9)
Mesmo que seja


Introdução:


Segunda Parte:

 Dm
Tira a máscara que cobre o seu rosto
                   Dm
Se mostre e eu descubro se eu gosto

Do seu verdadeiro jeito de ser


Pré-Refrão:

     D5         Eb5
Ninguém merece ser 
 D5
Só mais um bonitinho
 D5           Eb5  D5
Nem transparecer,     consciente
   D5             Eb5
Inconsequente sem    
     D5
Se preocupar em ser 
D5              Eb5  D5
   Adulto ou criança
                      D5
O importante é ser você


Refrão:

               F5                   G5
Mesmo que seja    estranho, seja você
                Bb5(9)
Mesmo que seja bizarro
               D5
Bizarro, bizarro
               F5                   G5
Mesmo que seja    estranho, seja você
               Bb5(9)
Mesmo que seja


Ponte:

E|-----------------------------------------------------|
B|-----------------------------------------------------|
G|-----------------------------------------------------|
D|-6--5--3--0-6--5-5--3--0-----------------------------|
A|-6--5--3--0-6--5-5--3--0-----------------------------|
D|-6--5--3--0-6--5-5--3--0-----------------------------|

O meu cabelo não é igual
A sua roupa não é igual
Ao meu tamanho, não é igual
Ao seu caráter, não é igual
Não é igual, não é igual, não é igual


Terceira Parte:

E|-----------------------------------------------------|
B|-----5-------5---6-----------------------------------|
G|-7-------7-----------5----5--------------------------|
D|---7---7---7---7---7----7----------------------------|
A|-----------------------------------------------------|
D|-----------------------------------------------------|

E|-----------------------------------------------------|
B|-----5-------5---6---6------5------------------------|
G|-7-------7-------------------------------------------|
D|---7---7---7---7---7------7---7----------------------|
A|-----------------------------------------------------|
D|-----------------------------------------------------|

E|-----------------------------------------------------|
B|-----5-------5---6-----------------------------------|
G|-7-------7-----------5----5--------------------------|
D|---7---7---7---7---7----7----------------------------|
A|-----------------------------------------------------|
D|-----------------------------------------------------|

E|-----------------------------------------------------|
B|-----5-------5---6---6------5------------------------|
G|-7-------7-------------------------------------------|
D|---7---7---7---7---7------7---7----------------------|
A|-----------------------------------------------------|
D|-----------------------------------------------------|

E|-----------------------------------------------------|
B|-----5-------5---6-----------------------------------|
G|-7-------7-----------5----5--------------------------|
D|---7---7---7---7---7----7----------------------------|
A|-----------------------------------------------------|
D|-----------------------------------------------------|

E|-----------------------------------------------------|
B|-----5-------5---6----5------------------------------|
G|-7-------7-------7----7------------------------------|
D|---7---7---7---7-7----7------------------------------|
A|-----------------------------------------------------|
D|-----------------------------------------------------|

  P.M. . . . . . .
E|-----------------------------------------------------|
B|-----------------------------------------------------|
G|-----------------------------------------------------|
D|-----------------------------------------------------|
A|-0-0-0-0-0-0-0-0-------------------------------------|
D|-0-0-0-0-0-0-0-0-------------------------------------|

E|-10----10----10----10----10----10----10--------------|
B|-13b15-13b15-13b15-13b15-13b15-13b15-13b15~----------|
G|-----------------------------------------------------|
D|-----------------------------------------------------|
A|-----------------------------------------------------|
D|-----------------------------------------------------|

I had enough of it
But I don't care
I had enough of it
But I don't care

I had enough of it
But I don't care
I had enough of it
             D5
But I don't care


Quarta Parte:

 D5  F5  D5
Diga        
     Ab5             D5  F5  D5
Quem     você é, me diga
 Eb5             D5     F5  D5
Me fale sobre a sua estrada
    Ab5           D5  F5  D5
Me conte sobre a sua vida
                        D5
E o importante é ser você


Refrão Final:
               F5                   G5
Mesmo que seja    estranho, seja você
                Bb5(9)
Mesmo que seja bizarro
               D5
Bizarro, bizarro
               F5                   G5
Mesmo que seja    estranho, seja você
                Bb5(9)
Mesmo que seja bizarro
               D5
Bizarro, bizarro
               F5                   G5
Mesmo que seja    estranho, seja você
                Bb5(9)
Mesmo que seja bizarro
               D5
Bizarro, bizarro
               F5                G5
Mesmo que seja estranho, seja você


(Final)

E|-----------------------------------------------------|
B|-----------------------------------------------------|
G|-----------------------------------------------------|
D|-6--5--3--0-6--5-5--3--0-----------------------------|
A|-6--5--3--0-6--5-5--3--0-----------------------------|
D|-6--5--3--0-6--5-5--3--0-----------------------------|

0 comentários

    mostrar mais comentários

    Conseguiu tocar?

    45tocaram2ainda não

    Grave um vídeo tocando Máscara e mande pra gente!

    00:00 / 00:00
    outros vídeos desta música
    repetirqualidadeautomática
    Outro vídeos desta música
      00:00 / 00:00
      automática
      Capítulos
      • Tocando a música
      • Dicas Iniciais / Equipamentos
      • Acordes da Introdução
      • Tocando a Introdução
      • Introdução - Parte 1 de 4
      • Introdução - Parte 2 de 4
      • Introdução - Parte 3 de 4
      • Introdução - Parte 4 de 4
      • Acordes da Primeira Parte
      • Tocando a Primeira Parte
      • Dicas da Primeira Parte
      • Ritmo da Primeira Parte
      • Riff da Estrofe
      • Variação do Riff Principal
      • Tocando Primeiro Pré-Refrão
      • Ritmo do Pré-Refrão
      • Acordes do Refrão
      • Tocando o Refrão
      • Ritmo do Refrão
      • Dicas 2
      • Tocando a Ponte
      • Ponte
      • Acordes da Terceira Parte
      • Tocando a Terceira Parte
      • Terceira Parte - Parte 1 de 4
      • Terceira Parte - Parte 2 de 4
      • Terceira Parte - Parte 3 de 4
      • Terceira Parte - Parte 4 de 4
      • Tocando Quarta Parte - Refrão Final
      • Encerramento
      • Ficha Técnica e Erros de Gravação
      OK