Cifra Club

Aprenda

Ninguém É de Ninguém

Pitty

Cifra: Principal (violão e guitarra)
Tom: Dm
[Intro] Dm  Bb  Am  Gm  F
        Dm  Bb  Am  Gm  F
        Dm  Dm7  Dm6
        Bb  Am  Gm  F
        Dm  Dm7  Dm6
        Bb  Am  Gm  F

[Riff]

E|------------------------------------------|
B|------------------------------------------|
G|------------------------------------------|
D|--------5----------5-7--------5-----------|
A|-5--5-8---8-5--5-8-----5--5-8---8---------|
E|----------------------------------6-5-3-1-|

E|------------------------------------------|
B|------------------------------------------|
G|------------------------------------------|
D|--------5----------5-7--------5-----------|
A|-5--5-8---8-5--5-8-----5--5-8---8---------|
E|----------------------------------6-5-3-1-|

E|------------------------------------------|
B|------------------------------------------|
G|------------------------------------------|
D|--------5----------5-7--------5-----------|
A|-5--5-8---8-5--5-8-----5--5-8---8---------|
E|----------------------------------6-5-3-1-|

E|------------------------------------------|
B|------------------------------------------|
G|------------------------------------------|
D|--------5----------5-7--------5-----------|
A|-5--5-8---8-5--5-8-----5--5-8---8---------|
E|----------------------------------6-5-3-1-|

[Primeira Parte]

Dm              Dm7
   É preciso estar atenta
Dm6                       Dm5+
    A essa história de andar na linha
Dm                   Dm7
   Se enxerga onde ela começa
Dm6                Dm5+
    Não se sabe onde termina
Dm              Dm7
   Eu te dou metade agora
Dm6                  Dm5+
    Guardo o resto pra depois
Dm               Dm7
   Explorando o Sol que nasce
Dm6                  Dm5+
    Desse choque entre nós dois

[Pré-Refrão]

Dm       Dm7  Dm6   Dm5+
   Esse vinho é borracha e fogo
  Dm   Dm7       Dm6
Apaga velhos rancores
      Dm5+
E me faz queimar de novo

[Refrão]

Dm               Dm7
   Não pense que eu te tenho
Dm6                 Dm5+
    E muito menos que você me tem
   Dm               Dm7
É lindo, baby, mas você sabe
Dm6                   Dm5+
    Que no fundo ninguém é de ninguém

[Riff] Dm  Bb  Am  Gm  F
       Dm  Bb  Am  Gm  F

E|------------------------------------------|
B|------------------------------------------|
G|------------------------------------------|
D|--------5----------5-7--------5-----------|
A|-5--5-8---8-5--5-8-----5--5-8---8---------|
E|----------------------------------6-5-3-1-|

E|------------------------------------------|
B|------------------------------------------|
G|------------------------------------------|
D|--------5----------5-7--------5-----------|
A|-5--5-8---8-5--5-8-----5--5-8---8---------|
E|----------------------------------6-5-3-1-|

[Segunda Parte]

Dm              Dm7
   Eu te dou metade agora
Dm6                  Dm5+
    Guardo o resto pra depois
Dm               Dm7
   Explorando o Sol que nasce
Dm6                  Dm5+
    Desse choque entre nós dois

[Pré-Refrão]

Dm       Dm7  Dm6   Dm5+
   Esse vinho é borracha e fogo
  Dm   Dm7       Dm6
Apaga velhos rancores
      Dm5+
E me faz queimar de novo

Me faz queimar de novo

[Refrão]

Dm               Dm7
   Não pense que eu te tenho
Dm6                 Dm5+
    E muito menos que você me tem
   Dm               Dm7
É lindo, baby, mas você sabe
Dm6                   Dm5+
    Que no fundo ninguém é de ninguém

Dm               Dm7
   Não pense que eu te tenho
Dm6                 Dm5+
    E muito menos que você me tem
   Dm               Dm7
É lindo, baby, mas você sabe
Dm6                   Dm5+
    Que no fundo ninguém é de ninguém

[Riff] Dm  Bb  Am  Gm  F
       Dm  Bb  Am  Gm  F
       Dm  Bb  Am  Gm  F
       Dm  Bb  Am  Gm  F

E|------------------------------------------|
B|------------------------------------------|
G|------------------------------------------|
D|--------5----------5-7--------5-----------|
A|-5--5-8---8-5--5-8-----5--5-8---8---------|
E|----------------------------------6-5-3-1-|

E|------------------------------------------|
B|------------------------------------------|
G|------------------------------------------|
D|--------5----------5-7--------5-----------|
A|-5--5-8---8-5--5-8-----5--5-8---8---------|
E|----------------------------------6-5-3-1-|

E|------------------------------------------|
B|------------------------------------------|
G|------------------------------------------|
D|--------5----------5-7--------5-----------|
A|-5--5-8---8-5--5-8-----5--5-8---8---------|
E|----------------------------------6-5-3-1-|

E|------------------------------------------|
B|------------------------------------------|
G|------------------------------------------|
D|--------5----------5-7--------5-----------|
A|-5--5-8---8-5--5-8-----5--5-8---8---------|
E|----------------------------------6-5-3-1-|

Me faz queimar de novo

Me faz queimar de novo

Me faz queimar de novo
Composição de Pitty
Colaboração e revisão:
  • Thiago Almeida
484 exibições
    • ½ Tom
    • Am
    • Bbm
    • Bm
    • Cm
    • C#m
    • Dm
    • Ebm
    • Em
    • Fm
    • F#m
    • Gm
    • G#m
  • Adicionar à lista

    0 comentários

    Mostrar mais comentários

    Conseguiu tocar?

    1 Tocaram 0 Ainda não

    Grave um vídeo tocando Ninguém É de Ninguém e mande pra gente!

    00:00 / 00:00
    outros vídeos desta música
    repetir qualidade Automático
    Outros vídeos desta música
    00:00 / 00:00
    Automático

    Cifra Club Pro

    Aproveite o Cifra Club com benefícios exclusivos e sem anúncios
    7 dias grátis
    Cifra Club Pro
    Aproveite o Cifra Club com benefícios exclusivos e sem anúncios
    7 dias grátis
    OK