Cifra Club

Aprenda

Semana Que Vem

Pitty

Cifra: Principal (violão e guitarra)
Tom: D
[Verso]

E|------------------------------------------------------------------------|
B|-----------7^----------------------------------------7^-----------------|
G|-7-77-----------7^------------------------7-77-----------7^-------------|
D|-7-77--5^---------------------------------7-77--5^----------------------|
A|-5-55-------------------------------------5-55--------------------------|
E|------------------------------------------------------------------------|

   Aaaa--ma-nhã  eu vou revelar             Deee|--pois eu  penso em aprender
   Daaa-qui a uns dias eu vou dizer         Oooo  que  me faz querer

Gritaaaaaar !!

E|----------------------------------------------------|
B|----------------------------------------------------|
G|-7-777--888888---7-777--888888----------------------|
D|-7-777--888888---7-777--888888----------------------|
A|-5-555--666666---5-555--666666----------------------|
E|----------------------------------------------------|

E|------------------------------------------------------------|
B|-----------7^----------------------------------------7^-----|
G|-7-77-----------7^------------------------7-77-----------7^-|
D|-7-77--5^---------------------------------7-77--5^----------|
A|-5-55-------------------------------------5-55--------------|
E|------------------------------------------------------------|

   Nooo mês que  vem tudo vai melhorar      Sóóó +  alguns anos e o mundo vai mudar
   Ainda temos   tempo até tudo explodir    Quem  sa---be quanto vai
Duraaaarrr

E|------------------------------------------------------------|
B|------------------------------------------------------------|
G|-7-777--888888---7-777--888888------------------------------|
D|-7-777--888888---7-777--888888------------------------------|
A|-5-555--666666---5-555--666666------------------------------|
E|------------------------------------------------------------|

        D                                     A
Não deixe nada pra depois, não deixe o tempo passar
           C5                                                         D
Não deixe nada pra semana que vem, porque semana que vem pode nem chegar
                     A                    C5
Pra depois, o tempo passar ... Não deixe nada pra semana que vem
Porque semana que vem pode nem che

[Verso 2]

E|------------------------------------------------------------------------|
B|-----------7^----------------------------------------7^-----------------|
G|-7-77-----------7^------------------------7-77-----------7^-------------|
D|-7-77--5^---------------------------------7-77--5^----------------------|
A|-5-55-------------------------------------5-55--------------------------|
E|------------------------------------------------------------------------|
 
A  partir de amanhã eu vou discutir   Daaa próxima vez eu vou questionar

E|------------------------------------------------------------------7^-|
B|-----------7^-------------------------------7^-----------------------|
G|-7-77-----------7^---------------7-77-----------7^-------------------|
D|-7-77--5^------------------------7-77--5^----------------------------|
A|-5-55----------------------------5-55--------------------------5^----|
E|---------------------------------------------------------------------|

Naaa  segunda eu começo a agir  Sóóó mais duas horas pra eu deci-dir

E|---------------------------------------------------------------------|
B|---------------------------------------------------------------------|
G|-7-777--888888---7-777--888888---------------------------------------|
D|-7-777--888888---7-777--888888---------------------------------------|
A|-5-555--666666---5-555--666666---------------------------------------|
E|---------------------------------------------------------------------|

        D                                     A
Não deixe nada pra depois, não deixe o tempo passar
           C5                                                         D
Não deixe nada pra semana que vem, porque semana que vem pode nem chegar
                     A                 C5
Pra depois, o tempo passar, não deixe nada pra semana que vem
                                 F#   G  F#  G
Porque semana que vem pode nem chegar

E|--------------------------------------------------------------|
B|-----2-----------3-----------2-----------3p5-3---3p5-3--------|
G|---2---2------4-----4-----2-----2----2p4-------4--------4-----|
D|-4---------5------------4---------4---------------------------|
A|--------------------------------------------------------------|
E|--------------------------------------------------------------|

F#              G             F#          G
  Esse pode ser o último dia de nossas vidas
           F#                  G            F#   G
  Última chance de fazer tudo ter valido a pena
F#             G             F#                   G
  Diga sempre tudo o que precisa dizer, arrisque mais pra não se arrepender
F#               G                      F#          G
  Nós não temos todo o tempo do mundo e esse mundo já faz muito tempo
F#         G                   F#            G
  O futuro é o presente, e o presente já passou
F#         G                   F#            G
  O futuro é o presente, e o presente já passou

           D                                     A
Não deixe nada pra depois, não deixe o tempo passar
           C5                                                         D
Não deixe nada pra semana que vem, porque semana que vem pode nem chegar
                     A                 C5
Pra depois, o tempo passar, não deixe nada pra semana que vem
                                   D
Porque semana que vem pode nem chegar


E|-----------------------------------------------------------------------------|
B|-----------------------------------------12^-10-12-10-12^-10-12-10-12-10-----|
G|-7--9/11-14--9/11---12-11-12-11-12-11------------------------------------11--|
D|--------------------------------------12-------------------------------------|
A|-5--7/9--12--7/9-------------------------------------------------------------|
E|-----------------------------------------------------------------------------|
Composição de Pitty
Colaboração e revisão:
408.616 exibições
  • Simplificar cifra
    • ½ Tom
    • A
    • Bb
    • B
    • C
    • Db
    • D
    • Eb
    • E
    • F
    • F#
    • G
    • Ab
  • Adicionar à lista

    0 comentários

    Mostrar mais comentários

    Conseguiu tocar?

    15 Tocaram 0 Ainda não

    Grave um vídeo tocando Semana Que Vem e mande pra gente!

    00:00 / 00:00
    outros vídeos desta música
    repetir qualidade Automático
    Outros vídeos desta música
    00:00 / 00:00
    Automático

    Cifra Club Pro

    Aproveite o Cifra Club com benefícios exclusivos e sem anúncios
    Cifra Club Pro
    Aproveite o Cifra Club com benefícios exclusivos e sem anúncios
    OK