Cifra Club

Aprenda

Teto de Vidro

Pitty

Cifra: Principal (violão e guitarra)
Tom: E
Introdução: C#5  A5  B5
          ( C#5  B5 )

E|-------19----16----------19/21----19-----------------|
B|-17~~--------------17~~------------------------------|
G|-----------------------------------------------------|
D|-----------------------------------------------------|
A|-----------------------------------------------------|
E|-----------------------------------------------------|

E|-16~~--19----16----------------------------14--------|
B|-------------------17b19r--17~~---16h17~-------14----|
G|-----------------------------------------------------|
D|-----------------------------------------------------|
A|-----------------------------------------------------|
E|-----------------------------------------------------|


Primeiro Refrão:

E|-19----16~\------19/21----19~\-----------------------|
B|-----------------------------------------------------|
G|-----------------------------------------------------|
D|-----------------------------------------------------|
A|-----------------------------------------------------|
E|-----------------------------------------------------|


          C#5
Quem não tem teto de vidro
                           A5  B5
Que atire a primeira pedra
          C#5
Quem não tem teto de vidro
                           A5  B5
Que atire a primeira pedra
          C#5
Quem não tem teto de vidro
                           A5  B5
Que atire a primeira pedra
          C#5
Quem não tem teto de vidro
                           A5  B5
Que atire a primeira pedra


Primeira Parte:

E|-----------------------------------------------------|
B|-----------------------------------------------------|
G|-----------------------------------------------------|
D|----6--6-6-6-4-4-4-----------------------------------|
A|-4-----------------6-6-6-6-6-6-----------------------|
E|-----------------------------------------------------|

E|-----------------------------------------------------|
B|-----------------------------------------------------|
G|-----------------------------------------------------|
D|----2--2-2-2-1-1-1-----------------------------------|
A|-0-----------------2-2-2-2-2-2-----------------------|
E|-----------------------------------------------------|

E|-----------------------------------------------------|
B|-----------------------------------------------------|
G|-------------------------6-4-------------------------|
D|----6--6-6-6-4-4-4-----------6-----------------------|
A|-4-----------------6-6-6-----------------------------|
E|-----------------------------------------------------|

E|-----------------------------------------------------|
B|-----------------------------------------------------|
G|-----------------------------------------------------|
D|----2--2-2-2-1-1-1-----------------------------------|
A|-0-----------------2/4--2~---------------------------|
E|-----------------------------------------------------|

E|-----------------------------------------------------|
B|-----------------------------------------------------|
G|-----------------------------------------------------|
D|-2-2-2-2-4-4-4-4-5-5-4-4-2-2-4-4---------------------|
A|---------------------------------/6-6-6-6-3-3-3------|
E|------------------------------------------------/4~--|

E|-----------------------------------------------------|
B|-----------------------------------------------------|
G|-----------------------------------------------------|
D|-2-2-2-2-4-4-4-4-5-5-4-4-2-2-4-4---------------------|
A|-----------------------------------------------------|
E|-----------------------------------------------------|

E|-----------------------------------------------------|
B|-----------------------------------------------------|
G|---------4-4-------------5~--------------------------|
D|-----4-4-----4-4-----4-4-----------------------------|
A|-2-2-------------3-3---------------------------------|
E|-----------------------------------------------------|

C#5
Andei por tantas ruas e lugares
 A5
Passei observando quase tudo
 C#5
Mudei o mundo gira num segundo
 A5
Busquei dentro de mim os meus lares
                         
E aí tantas pessoas querendo sentir

Sangue correndo na veia
 
É bom assim

Se movimenta, tá vivo

Ouvi milhões de vozes gritando


Pré-Refrão:

    C#m      B       A       B
E|------9-------7-------5-------7----------------------|
B|--------9-------7-------5-------7--------------------|
G|----9-------8-------6-------8------------------------|
D|-11-------9-------7-------9--------------------------|
A|-----------------------------------------------------|
E|-----------------------------------------------------|

    C#m      B       F#m     G#m
E|------9-------7-----5-------7------------------------|
B|--------9-------7-----7-------9----------------------|
G|----9-------8-----------6-------8--------------------|
D|-11-------9-------4-------6--------------------------|
A|-----------------------------------------------------|
E|-----------------------------------------------------|

C#m  B         A       B       C#m
     Eu quero ver quem é capaz
 B           F#m
De fechar os olhos
   G#m
E descansar em paz

( C#5  A5 )


Segundo Refrão:

          C#5
Quem não tem teto de vidro
                           A5  B5
Que atire a primeira pedra
          C#5
Quem não tem teto de vidro
                           A5  B5
Que atire a primeira pedra
          C#5
Quem não tem teto de vidro
                           A5  B5
Que atire a primeira pedra
          C#5
Quem não tem teto de vidro
                           A5  B5
Que atire a primeira pedra


Segunda Parte:

C#5
Andei por tantas ruas e lugares
 A5
Passei observando quase tudo
 C#5
Mudei o mundo gira num segundo
 A5
Busquei dentro de mim os meus lares
                         
E aí tantas pessoas querendo sentir

Sangue correndo na veia
 
É bom assim

Se movimenta, tá vivo

Ouvi milhões de vozes gritando


Pré-Refrão:

C#m  B         A       B       C#m
     Eu quero ver quem é capaz
 B           F#m
De fechar os olhos
   G#m
E descansar em paz

( C#5  A5 )


Terceiro Refrão:

          C#5
Quem não tem teto de vidro
                           A5  B5
Que atire a primeira pedra
          C#5
Quem não tem teto de vidro
                           A5  B5
Que atire a primeira pedra
          C#5
Quem não tem teto de vidro
                           A5  B5
Que atire a primeira pedra
          C#5
Quem não tem teto de vidro
                           A5  ( E5  B/D# )
Que atire a primeira pedra


Final:

     C#5
Na frente está o alvo

Que se arrisca pela linha
    E5
Não é tão diferente

Do que eu já fui um dia
    B5
Se vai ficar, se vai passar

Não sei
   A5
E num piscar de olhos

Lembro tanto que falei
        C#5
Deixei,     calei

E até me importei
         E5
Mas não tem nada

Eu tava mesmo errada
 B5
Cada um em seu casulo

Em sua direção
 A5
Vendo de camarote

A novela da vida alheia
     C#5
Sugerindo soluções

Discutindo relações
     E5
Bem certos que a verdade

Cabe na palma da mão
    B5
Mas isso não é
                    A5
Uma questão de opinião
    C#5
Mas isso não é
                    E5
Uma questão de opinião
  B5
E isso é só
                    A5
Uma questão de opinião
Composição de Pitty
597.943 exibições
    • ½ Tom
    • A
    • Bb
    • B
    • C
    • Db
    • D
    • Eb
    • E
    • F
    • F#
    • G
    • Ab
  • Adicionar à lista

    0 comentários

    Mostrar mais comentários

    Conseguiu tocar?

    64 Tocaram 6 Ainda não

    Grave um vídeo tocando Teto de Vidro e mande pra gente!

    00:00 / 00:00
    outros vídeos desta música
    repetir qualidade Automático
    Outros vídeos desta música
    00:00 / 00:00
    Automático
    Capítulos
    • Tocando a música
    • Dicas Iniciais / Equipamentos
    • Acordes da Introdução
    • Tocando Introdução - Primeiro Refrão
    • Ritmo Padrão
    • Passagem da Intro
    • Introduçao - Riff 1
    • Refrão - variação do Riff 1
    • Tocando Primeira Parte
    • Primeira Parte - Parte 1 de 4
    • Primeira Parte - Parte 2 de 4
    • Primeira Parte - Parte 3 de 4
    • Primeira Parte - Parte 4 de 4
    • Acordes Pré-Refrão
    • Tocando Pré-Refrão
    • Pré-Refrão
    • Passagem do Pré-Refão
    • Dicas 2
    • Acordes do Final
    • Tocando Final
    • Encerramento
    • Ficha Técnicas e Erros de Gravação

    Cifra Club Pro

    Aproveite o Cifra Club com benefícios exclusivos e sem anúncios
    Cifra Club Pro
    Aproveite o Cifra Club com benefícios exclusivos e sem anúncios
    OK