Cifra Club

Dig For Fire

Pixies

Tab de baixo: Principal
exibições 423
Verse
G|-----------------------|
D|-----------------------|
A|-----------------------|
E|-5-5--2-2--0-0-0-0-2-2-|

At times the verse is
played like this:

G|--------------------------|
D|--------------------------|
A|--------------------------|
E|-5-5--7/-2-2--0-0-0-0-2-2-|

Chorus
G|-----------------|-----------------|-----------------|-----------------|-
D|-----------------|-----------------|-----------------|-----------------|-
A|-----------------|-5-5-5-5---------|---------5-5-5-5-|-----------------|-
E|-0-0-0-0-2-2-2-2-|---------0-0-0-0-|-2-2-2-2---------|-0-0-0-0-2-2-2-2-|-

G|-----------------|-----------------|-----------------|-
D|-----------------|-----------------|-----------------|-
A|-5-5-5-5-2-2-2-2-|-----------------|---------5-5-5-5-|-
E|-----------------|-3-3-3-3-5-5-5-5-|-2-2-2-2---------|-

G|-----------------------|
D|-----------------------|
A|-----------------------|
E|-5-5--2-2--0-0-0-0-2-2-|

Solo
G|-----------------|-------------------------|-----------------|-
D|-----------------|-------------------------|-----------------|-
A|-----------------|-5-5-5-5-----------------|-5-5-5-5-5-------|-
E|-0-0-0-0-2-2-2-2-|---------0-0-0-0-2-2-2-2-|-----------2-2-2-|-

G|-----------------|-------------------------|-------------------------|
D|-----------------|-------------------------|-------------------------|
A|-----------------|-5-5-5-5-2-2-2-2---------|-----------------5-5-5-5-|
E|-0-0-0-0-2-2-2-2-|-----------------3-3-3-3-|-5-5-5-5-2-2-2-2---------|

Outro
G|-----------------|-------------------------|-------------------------|-
D|-----------------|-------------------------|-------------------------|-
A|-----------------|-5-5-5-5-----------------|-5-5-5-5-----------------|-
E|-0-0-0-0-2-2-2-2-|---------0-0-0-0-2-2-2-2-|---------0-0-0-0-2-2-2-2-|-

G|-----------------|-------------------------|-------------------------|-
D|-----------------|-------------------------|-------------------------|-
A|-5-5-5-5-2-2-2-2-|-------------------------|-5-5-5-5-----------------|-
E|-----------------|-3-3-3-3-5-5-5-5-2-2-2-2-|---------5-5-5-5-2-2-2-2-|-


G|-----------------|-------------------------|-------------------------|-
D|-----------------|-------------------------|-------------------------|-
A|-----------------|-----------------5-5-5-5-|-----------------5-5-5-5-|-
E|-5-5-5-5-2-2-2-2-|-0-0-0-0-2-2-2-2---------|-0-0-0-0-2-2-2-2---------|-

G|-----------------|-------------------------|-------------------------|
D|-----------------|-------------------------|-------------------------|
A|-2-2-2-2---------|-----------------5-5-5-5-|-------------------------|
E|---------3-3-3-3-|-5-5-5-5-2-2-2-2---------|-5-5--2-2--0-0-0-0-2-2---|

| /  slide up
| \  slide down
======================
Composição: Black FrancisColaboração e revisão:
  • Gilson Sá

0 comentários

    mostrar mais comentários

    Conseguiu tocar?

    0tocaram0ainda não

    Grave um vídeo tocando Dig For Fire e mande pra gente!

    00:00 / 00:00
    outros vídeos desta música
    repetirqualidadeautomática
    Outro vídeos desta música
      00:00 / 00:00
      automática
      OK