Cifra Club

Gigantic

Pixies

Cifra: Principal
exibições 11.886
Tom: G
introduçao 
riff para o baixo faz na guitarra sem dist. eh legal
a------5--7-7---2-2----3--5-5------
e--3---------------------------3---  2x

riff para o baixo 6x

aah!!! aah!!! ahh!!! ahh!!! ahh!!!
And this I know
his teeth as white as snow
what a gas it was to see him
walk her every day
into a shady place
with her lips she said
she said

e---------------
b--------------- 3x
g----------12~~-
hey paul, hey paul, hey paul, let's have a ball 3x

   (refrao)
e-----------------------------------------------
b-----------------------------------------------
g-----------7-7--9-9------4-4-4-4---5-5--7-7----
d-5-5-5-5---7-7--9-9------4-4-4-4---5-5--7-7---- 4x
a-5-5-5-5---5-5--7-7------2-2-2-2---3-3--5-5----
e-3-3-3-3---------------------------------------

gigantic, gigantic, gigantic
a big big love
gigantic, gigantic, gigantic
a big big love

riff para o baixo com o acompanhamento da bateria
a------5--7-7---2-2----3--5-5-------
e--3---------------------------3-3-- 

lovely legs there are
what a big black mask
what a hunk of love
walk her every day into a shady place
he's like the dark, but I'd want him

e---------------
b--------------- 3x
g----------12~~-
hey paul, hey paul, hey paul, let's have a ball 3x

 (refrao)
e-----------------------------------------------
b-----------------------------------------------
g-----------7-7--9-9------4-4-4-4---5-5--7-7----
d-5-5-5-5---7-7--9-9------4-4-4-4---5-5--7-7---- 4x
a-5-5-5-5---5-5--7-7------2-2-2-2---3-3--5-5----
e-3-3-3-3---------------------------------------

gigantic, gigantic, gigantic
a big big love
gigantic, gigantic, gigantic
a big big love

Solo
e-------------------------------------------
b-------------------------------------------
g-----0--1----------------------------------
d-5--0--2---1-(1)---3--4-5--5---------------
a-5--------2-------4--5-----5---------------
e-3-------------------------3---------------

ponte pós solo
G5 D5 E5 B5 C5 D5 4x

riff para o baixo:

gigantic, gigantic, gigantic
a big big love

Refrao

gigantic, gigantic, gigantic
a big big love 7x uma par de vezes e com gritos de fundo

Ponte 

Gigantic
Acordes para:
    Composição: Black Francis / Kim DealColaboração e revisão:
    • José Fuza

    0 comentários

      mostrar mais comentários

      Conseguiu tocar?

      0tocaram0ainda não

      Grave um vídeo tocando Gigantic e mande pra gente!

      00:00 / 00:00
      outros vídeos desta música
      repetirqualidadeautomática
      Outro vídeos desta música
        00:00 / 00:00
        automática
        OK