Cifra Club

Hey

Pixies

Cifra: Principal
exibições 47.175
Tom: B
[Apenas baixo]
|---------------------------------------------------------------|
|---------------------------------------------------------------|
|-------------------0----1---2-----2--2-3-4-5---5--5------------|
|-------2-------------------------------------------------------|
  
  hey   
 F#              Bm
been trying to meet you


[Começa a guitarra]
|-----2----X--X------------2---------------------|
|-----3----X--X---3--3-------3-------------------|
|-----2h4--X--X---2--2h4-------4-----------------| 
|------------------------------------------------| 
|------------------------------------------------| 
|------------------------------------------------| 
|                                                | (REPETE)
|                                                |
|[Baixo]                                         |                     
|------------------------------------------------|
|------------------------------------------------|
|------------------------------------------------|
|--0--2--3---------3---3---------0--1--2--2--2---|
D
mmmmmmm...
G F#
hey
           Bm
must be a devil between us
    D
or whores in my head
G
whores at my door
F#
whores in my bed
     Bm
but hey
D
where
G
have you
F#
been
Bm             D
if you go i will surely die


      G       Em   Bm  G  Em  Bm ...
we're chained (5x)

Solo:
|--------------------------------------------------------------
|--------------------------------------------------------------
|--7-------------6---------------------------------------------
|----9-7-----------7------------------------------------------- 2x
|--------9-7h8h9-----9--7-7h8h9--7-5-----------7-5-------------
|------------------------------------7-5-5h6h7-----7-5-5h6h7---

|------------------------10-10-7------------10-10-7------------
|----------------------7---------10-7-5h6h7---------10-7-5h6h7-
|--7~---7-9-9b---9-7-9-----------------------------------------
|--------------------------------------------------------------
|--------------------------------------------------------------
|--------------------------------------------------------------

|--------------------------------------------------------------
|--------------------------------------------------------------
|--9b-----9b-----9b-----9b-9b-9b-9b----------------------------
|--------------------------------------------------------------
|--------------------------------------------------------------
|--------------------------------------------------------------

Verso 2: (Repita o mesmo esquema D F# Bm G da primeira parte)
 uh, said the man to the lady
 uh, said the lady to the man she adored
 and the whores like a choir
 go uh all night
 and mary ain't you tired of this
 uh is the sound
 that the mother makes when the baby breaks
 we're chained


NOTAÇÃO:
h=hammer-on
X=corda abafada


Canção simples, mas vale a pena tocar...
Faz muito tempo que eu não ouço essa música, então qualquer erro,
reclamação, correção, comentário são bem-vindos...
Ouçam esse disco inteiro, é um clássico do pop alternativo...
"Pixies é o pop perfeito" - Kurt Cobain
Acordes para:
    Composição: Black FrancisColaboração e revisão:
    • jose antonio
    • Pedro Cruz
    • Vinicius Lima

    0 comentários

      mostrar mais comentários

      Conseguiu tocar?

      7tocaram0ainda não

      Grave um vídeo tocando Hey e mande pra gente!

      00:00 / 00:00
      outros vídeos desta música
      repetirqualidadeautomática
      Outro vídeos desta música
        00:00 / 00:00
        automática
        OK