Cifra Club

Hey

Pixies

Tab de baixo: Principal
exibições 5.055
+++++++++++++++++++
+++++++++++++++++++

Esta tab se la dedico a mi primita linda de Stgo!
:D
Viste ke no me olvide de ti y ke te tengo en mente :)
Miles besitos, esta wena la song (H)
Ya bye (K) kuidate, te kiero arto !

Tuning: EADG

Verse
"Been trying to meet you..."
1.
G|-------------------------------------------------------------|
D|-------------------------------------------------------------|
A|-------0-1-2~--2~--2-3-4-5~--5~--5---------------------------|
E|-2~--------------------------------0-2-3~--3~--3-0-1-2~--2~--|

"Must be a devil between us..."
2.
G|--------------------------------------------------------|
D|--------------------------------------------------------|
A|---0-1-2~--2~--2-3-4-5~--5~--5--------------------------|--x2
E|-2-----------------------------0-2-3~--3~--3-0-1-2~--2~-|

3.
G|--------------------------------------------------------------------------|
D|--------------------------------------------------------------------------|
A|---0-1-2~--2~--2-3-4-5~--5~--5-----------------22222222-------------------|
E|-2-----------------------------0-2-3~----0~-------------33333333-00000000-|

Chorus
"We're chained..."
4.
G|-------------------------------------------------------------------------|
D|-------------------------------------------------------------------------|
A|-22222222-------------------22222222-------------------22222222----------|
E|----------33333333-00000000----------33333333-00000000----------33333333-|

5.
G|-------------------|
D|-------------------|
A|----------22222222-|
E|-00000000----------|

6.
G|---------------------------------------------------------|
D|---------------------------------------------------------|
A|-------------------------0-1-2~--2~--2-3-4-5~--5~--5-----|--x5
E|-3~--3~--3-0-1-2~--2~--2-----------------------------0-2-|

"Said the man to the lady..."
7.
G|---------------------------------------------------------|
D|---------------------------------------------------------|
A|-------------------------0-1-2~--2~--2-3-4-5~--5~--5-----|
E|-3~--------0-1-2-------------------------------------0-2-|

8.
G|---------------------------------------------------------|
D|---------------------------------------------------------|
A|-------------------------0-1-2~--2~--2-3-4-5~--5~--5-----|--x3
E|-3~--3~--3-0-1-2~--2~--2-----------------------------0-2-|

9.
G|----------------------------------------|
D|----------------------------------------|
A|-------------22222222-------------------|
E|-3~----0~-------------33333333-00000000-|

Chorus
"We're chained..."
10.
G|----------------------------------------------------------------------------------|
D|----------------------------------------------------------------------------------|
A|-22222222-------------------22222222-------------------22222222-------------------|
E|----------33333333-00000000----------33333333-00000000----------33333333-00000000-|

11.
G|--------------------------------------|
D|--------------------------------------|
A|-22222222-------------------2~--------|
E|----------33333333-00000000-----------|

Lyrics:

Been trying to meet you
Must be a devil between us
Or whores in my head
Whores at my door
Whores in my bed
But hey, where have you been 
if you go I will surely die
We're chained

Uh said the man to the lady
Uh said the lady to the man she adored
And the whores like a choir
Go uh all night
And mary ain't you tired of this
Uh is the sound
That the mother makes when the baby breaks
We're chained

+++++++++++++++++++++++++++++++++
| RaiLeff                       |
| Underground__Dora@* |
+++++++++++++++++++++++++++++++++
Composição: Black Francis

0 comentários

    mostrar mais comentários

    Conseguiu tocar?

    5tocaram0ainda não

    Grave um vídeo tocando Hey e mande pra gente!

    00:00 / 00:00
    outros vídeos desta música
    repetirqualidadeautomática
    Outro vídeos desta música
      00:00 / 00:00
      automática
      OK