Cifra Club

In Heaven

Pixies

Cifra: Principal
exibições 1.615
Tom: C

Tabbed by ƒranz

This tab attempts to sum up the live version played in the recent reunion tour. In
I used the version played at the Rock En Seine 2005 gig (widely available on the 
youtube).
I’m quite confident that the bass/chords (which I guess is what really matters) are 100% correct.
And, yes, Kim Deal is the most gorgeous woman in indie rock EVER.


+++ BASS & Chords +++

  Bm                       Em          G
G|------------------------|------------------------|
D|------------------------|------------------------|
A|-2--2--2--2--2--2--2--2-|------------------------|
D|------------------------|-2--2--2--2--5--5--5--5-|

  Bm                       Em          G
G|------------------------|------------------------|
D|------------------------|------------------------|
A|-2--2--2--2--2--2--2--2-|------------------------|
D|------------------------|-2--2--2--2--5--5--5--5-|

  Bm                       Em          G
G|------------------------|------------------------|
D|------------------------|------------------------|
A|-2--2--2--2--2--2--2--2-|------------------------|
D|------------------------|-2--2--2--2--5--5--5--5-|

  Dsus2       Em           F
G|------------------------|------------------------|
D|------------------------|------------------------|
A|------------------------|------------------------|
D|-0--0--0--0--2--2--2--2-|-3--3--3--3--3--3--3--3-|

  Dsus2        G           Dsus2
G|------------------------|------------------------|
D|------------------------|------------------------|
A|------------------------|------------------------|
D|-12-12-12-12--5--5--5--5|-12-12-12-12-12-12-12-12|

Repeat all of this four times, one time without lyrics and then thrice with lyrics (the
time, live, is when rhythm guitar enters).
and end on D (either 0 or 12):

G|------------------------------|------------------------------|------|
D|------------------------------|------------------------------|------|
A|-2----------------------------|------------------------------|------|
D|------------------------------|-2---------------5------------|-0----|


+++ GUITAR +++

  Bm                              Em             G
e|--------7~--------------------|------------------------------|
B|------7~----------------------|------------------------------| strum slowly
G|----7~---------let-ring-------|------------------------------| repeat twice
D|-9~---------------------------|------------------------------|
A|------------------------------|------------------------------|
E|------------------------------|------------------------------|

At the third time, you might want to add a D note on the e string

  Bm                              Em             G
e|--------10~-------------------|------------------------------|
B|------7~----------------------|------------------------------|
G|----7~---------let-ring-------|------------------------------|
D|-9~---------------------------|------------------------------|
A|------------------------------|------------------------------|
E|------------------------------|------------------------------|

Then play some notes adlib like this for the last 4 bars of the chord progression

  Dsus2             Em            F
e|--------12--------12----------|-----------12---------12------|
B|-15--15------15---------------|--15---15---------15----------|
G|---------------------------14-|------------------------------|
D|------------------------------|------------------------------|
A|------------------------------|------------------------------|
E|------------------------------|------------------------------|


For the other verses, you might want to add more notes like

  Bm                              Em             G
e|------------------------------|------------------------------|
B|---7------------7-------------|--8------------8--------------|
G|------7------------7----------|-----9------------7-----------|
D|---------9------------9-------|--------9------------9--------|
A|------------------------------|------------------------------|
E|------------------------------|------------------------------|

Or improvise any arpeggio on those Bm, Em and G chords.

Comments or anything, please write to

franzregister Tahoo com

where Tahoo is clearly yahoo ; )

Cheers

ƒranz
Acordes para:
    Composição: Black Francis

    0 comentários

      mostrar mais comentários

      Conseguiu tocar?

      0tocaram0ainda não

      Grave um vídeo tocando In Heaven e mande pra gente!

      00:00 / 00:00
      outros vídeos desta música
      repetirqualidadeautomática
      Outro vídeos desta música
        00:00 / 00:00
        automática
        OK