Cifra Club

Aprenda

1234

Plain White T's

Cifra: Principal (violão e guitarra)
tom: D
(intro) D5 A5/C# Bm A5 G Gm D5

---------------------------7--9--10--10--12/10--10|
--10--7--10-----10-----10------------11---------10|
-------------9------7-----------------------------|
--------------------------------------------------|
--------------------------------------------------|
--------------------------------------------------|

D5
Gimme more loving than I've ever had
A5/C#
make it all better when I'm feeling sad
Bm                                             A5            A7
tell me that I'm special even when I know I'm not

D5
Make it feel good when I hurt so bad
A5/C#                              Bm
Barely getting mad, I'm so glad I found you
             A5
I love being around you
G                            A
You make it easy, as easy as 1,2,1,2,3,4

             D5         A5/C#  Bm        A5      G Gm D5
there's only one thing to do, 3 words for you, i love you

             D5       A5/C#          Bm           A5               G Gm D5
There's only one way to say, those 3 words, and thats what I'll do, i love you

D5
Give me more loving from the very start
A5/C#
Piece me back together when I fall apart
Bm                                               A        A7
Tell me things you never even tell your closest friends

D5
Make it feel good when I hurt so bad
A5/C#                             Bm
Best that i've had, i'm so glad i found you
              A5
I love being around you
G                            A
You make it easy, as easy as 1,2,1,2,3,4

             D5         A5/C#  Bm        A5      G Gm D5
there's only one thing to do, 3 words for you, i love you

             D5       A5/C#          Bm           A5               G Gm D5
There's only one way to say, those 3 words, and thats what I'll do, i love you

G Gm
i love you

(solo) D5 A5/C# Bm A5 A7
       D5 A5/C# Bm A5

---------------------------------------------------------------------|
5/7-7-7h5---5h7-7----5/7-7-7h5---5h7-7----5/7-7-7h5---5h7-7---5-3-2--|
----------7-------------------7---------------------7-------7-------2|
---------------------------------------------------------------------|
---------------------------------------------------------------------|
---------------------------------------------------------------------|

-----------------------------------------------------------------------|
5/7-7-7h5---557-7----5/7-7-7--10-8-7-5-5-7-------7-5-5-3---------------|
----------7--------------------------------7-7-7---------2-------------|
-----------------------------------------------------------------------|
-----------------------------------------------------------------------|
-----------------------------------------------------------------------|

            G                A
You make it easy, as easy as 1,2,1,2,3,4

*Só uma batida em cada nota no refrão nessa vez

             D5       A5/C#          Bm           A5               G Gm D5
There's only one way to say, those 3 words, and thats what I'll do, i love you
             D5         A5/C#  Bm        A5      G Gm D5         D5
there's only one thing to do, 3 words for you, i love you

             D5       A5/C#          Bm           A5               G Gm D5
There's only one way to say, those 3 words, and thats what I'll do, i love you

   D5 A5/C# Bm A5 G Gm D5
---------------------------7--9--10--10--10|
--10--7--10-----10-----10------------11--10|
-------------9------7----------------------|
-------------------------------------------|   i love you
-------------------------------------------|
-------------------------------------------|

   D5 A5/C# Bm A5 G Gm D5
---------------------------7--9--10--10-12-10|
--10--7--10-----10-----10------------11-11-10|
-------------9------7------------------------|
---------------------------------------------|   1,2,3,4     i love you
---------------------------------------------|
---------------------------------------------|

   G Gm D5
--10-12-10|
--11-11-10|
----------|
----------|   i love you
----------|
----------|
Colaboração e revisão:
  • Raphael Hessel
  • Eduardo Castillo
  • Guilherme Goncalves
8.181 exibições
    • ½ Tom
    • A
    • Bb
    • B
    • C
    • Db
    • D
    • Eb
    • E
    • F
    • F#
    • G
    • Ab
  • Adicionar à lista

    0 comentários

    Ver todos os comentários
    00:00 / 00:00
    outros vídeos desta música
    repetir qualidade Automático
    Outros vídeos desta música
    00:00 / 00:00
    Automático

    Cifra Club Pro

    Aproveite o Cifra Club com benefícios exclusivos e sem anúncios
    Cifra Club Pro
    Aproveite o Cifra Club com benefícios exclusivos e sem anúncios
    OK