Cifra Club

Aprenda

Take Me Away

Plain White T's

Cifra: Principal (violão e guitarra)
tom: C
tabbed by lauren rothschild
e-mail- *
aim- heyXlaurensXon
=]


intro-

[feedback]
e|---------------------------------|
b|---------------------------------|
g|--7------------------------------|
d|--7------------------------------|
a|--5------------------------------|
e|---------------------------------|


verse-

e|--------------------------------|
b|--------------------------------|
g|--7-----------7-----------------|
d|--7--7--5--7--7---x2---5--------|
a|--5--7--5--7--5--------5--------|
e|-----5--3--5-----------7--------|

chorus-

e |-----------------------------------|
b |-----------------------------------|
g |--7-----------12-11-9-7------------|
d |--7--7---9----x--x--x-x------------|  x2
a |--5--7---9----10-9--7-5------------|
e |-----5---7-------------------------|

bridge-

[lead]
e|-----------------------------------|
b|--10-10-10-10-8-8-8-7--------------|
g|--11-11-11-11-9-9-9-7--------------|
d|-----------------------------------|
a|-----------------------------------|
e|-----------------------------------|

then

e|------------------------------------|
b|------------------------------------|
g|--11-11-9-11--9--6--7--9------------|
d|--x--x--x--x--x--x--x--x--10--------|
a|--9--9--7--9--7--4--5--7--10--------|
e|---------------------------8--------|

===========================
intro
verse
chorus
verse
chorus
bridge
chorus
chorus
Composição de Plain White T's
2.340 exibições
    • ½ Tom
    • A
    • Bb
    • B
    • C
    • Db
    • D
    • Eb
    • E
    • F
    • F#
    • G
    • Ab
  • Adicionar à lista

    0 comentários

    Ver todos os comentários
    00:00 / 00:00
    outros vídeos desta música
    repetir qualidade Automático
    Outros vídeos desta música
    00:00 / 00:00
    Automático

    Cifra Club Pro

    Aproveite o Cifra Club com benefícios exclusivos e sem anúncios
    Cifra Club Pro
    Aproveite o Cifra Club com benefícios exclusivos e sem anúncios
    OK