Cifra Club

Aprenda

Slow Fall

Plan

Cifra: Principal (violão e guitarra)
tom: E
guitarist. They released their first album in 2001 and their second album was released 2004.


#This file is the author's own work and represents their interpretation of the#
#song. You may only use this file for private study, scholarship, or research.#


Transcriber: Daniel Widegren, *

to and to play so I thought I could give you a hand. I haven't tabbed the solo
but I'll try to figure it out later on.

Main guitar Riff:
E|------------------------------------------------------------------------------|
B|------------------------------------------------------------------------------|
G|-13--13--13-13-13--11--14--14--14-14-14--13--14--14--14-14-14--13-------------|
D|------------------------------------------------------------------------------|
A|-11--11--11-11-11--9---12--12--12-12-12--11--12--12--12-12-12--11-------------|
E|------------------------------------------------------------------------------|

----------------------|
----------------------|
-13--13--13-13-13--11-|
----------------------|
-11--11--11-11-11--9--|
----------------------|

Main brass part:
E|------------------------------------------------|
B|------------------------------------------------|
G|-9--9--11-9-------------------------------------|
D|------------11-9--9--11-9----------11-9---------|
A|--------------------------11-9--9-------11-7--7-|
E|------------------------------------------------|

Verse 1:
E            B          F#m         E
Slow, slow fall, slow fall backwards
E            B          F#m         E
Slow, slow fall, slow fall backwards

Second brass part:
E|-------------------------------------------------|
B|---------------9--9--9----9--9--9----------------|
G|-13--13--13-11---------13---------13--13--13-11--|
D|-------------------------------------------------|
A|-------------------------------------------------|
E|-------------------------------------------------|

-------------------------------------------|
---------------9--9--9----9--9--9----------|
-13--13--13-11---------13---------13--13---|
-------------------------------------------|
-------------------------------------------|
-------------------------------------------|

Verse 2:
E         B      F#m              E
Turn, a turn, a turn with closed eyes
E               B      F#m               E
Turn, I took a turn, a turn with closed eyes

Chorus:
E            C#m
 I brought a tear
  F#m                E
A tear to my mama's eye
E            C#m
 I brought a fear
  F#m                E
A fear to my mama's eye

Verse 3:
E             B          F#m           E
Play a dark night, dark night by the steep
E             B          F#m           E
Play a dark night, dark night by the steep

Chorus:
E            C#m
 I brought a tear
  F#m                E
A tear to my mama's eye
E            C#m
 I brought a fear
  F#m                E
A fear to my mama's eye

  Interlude
E|-------------------------9----9/----------------------------------------------|
B|---------9----9--12--12----12------12--12--12-12-12--12--12--12--12-12-12--12-|
G|-11--11----11-----------------------------------------------------------------|
D|-----------------------------------9---9---9--9--9---9---9---9---9--9--9---9--|
A|------------------------------------------------------------------------------|
E|------------------------------------------------------------------------------|

------------------------------------------------------------------------------|
---------9----9--12--12--9----9\----------------------------------------------|
-11--11----11--------------11------9-9-9-9-9-9-9-9-9-9-9-9-9-9-9-9-13-13-13---|
------------------------------------------------------------------------------|
-----------------------------------7-7-7-7-7-7-7-7-7-7-7-7-7-7-7-7-11-11-11---|
------------------------------------------------------------------------------|

----------------------------------------|
----------------------------------------|
-13-13-13-13-13-13-13-13-13-13-13-13-13-|
----------------------------------------|
-11-11-11-11-11-11-11-11-11-11-11-11-11-|
----------------------------------------|

Second guitar riff:
E|------------------------------------------------|
B|------------------------------------------------|
G|-9--9--11-9-------------------------------------| x2 NOTE: In the end of the 2nd time 
is a
D|------------11-9--9--11-9----------11-9---------|          slight differens, but it's 
improvisation
A|--------------------------11-9--9-------11-7--7-|          stuff that anyway is 
by the
E|------------------------------------------------|          great solo.

Verse 4:
E            B          F#m         E
Slow, slow fall, slow fall backwards
E            B          F#m         E
Slow, slow fall, slow fall backwards

Chorus:
E            C#m
 I brought a tear
  F#m                E
A tear to my mama's eye
E            C#m
 I brought a fear
  F#m                E
A fear to my mama's eye

-----------------------------

The song, all together is

>>IntroVerse 1
>Main guitar riff x2 + Second brass part
>Verse 2
>Chorus
>Verse 3
>Chorus
>Interlude
>>Guitar SoloVerse 4
>Chorus
>>Outro
Composição de The Plan
174 exibições
    • ½ Tom
    • A
    • Bb
    • B
    • C
    • Db
    • D
    • Eb
    • E
    • F
    • F#
    • G
    • Ab
  • Adicionar à lista

    0 comentários

    Ver todos os comentários

    Conseguiu tocar?

    0 Tocaram 0 Ainda não

    Grave um vídeo tocando Slow Fall e nos envie!

    00:00 / 00:00
    outros vídeos desta música
    repetir qualidade Automático
    Outros vídeos desta música
    00:00 / 00:00
    Automático

    Cifra Club Pro

    Aproveite o Cifra Club com benefícios exclusivos e sem anúncios
    Cifra Club Pro
    Aproveite o Cifra Club com benefícios exclusivos e sem anúncios
    OK