Cifra Club

Aprenda

Queimando Tudo

Planet Hemp

Cifra: Principal (violão e guitarra)
Tom: E
-Vocês se meteram numa grande encrenca
-É porque a galera tá fumando demais, cara
-Ah! Desde que eu nasci que eu fumo

(B,A,F#m,E)
Eu canto assim por que eu fumo maconha
Adivinhe quem tá de volta explorando a sua vergonha ???
Eu sou o melhor do microfone não dou mole pra ninguém
Porque o Planet Hemp ainda gosta da Mary Jane
Então por favor, não! 
Me trate como um marginal
Se o papo for por aí
Já começamos mal
Quer me prender só porque eu fumo Canabis Sativa
Na cabeça ativa, na cabeça ativa
Na cabeça ativa e isso te incomoda?
Eu falo, penso, grito e isso pra você‚ é foda
Mente aguçada, mermão,
Eu sei que isso te espanta
Mas eu continuo queimando tudo
Até a última ponta

########### Refrão #############
 B       A                      |
   Até a última ponta           |
           F#m                  |     4 x
   eu continuo queimando tudo   |
         E                      |
   até a última ponta!          |
################################

(B,A,F#m,E)
Piso pesado e sinistro
Como o sol que vem sem dó
Quando eu tou preso em preto e branco
Como em Daunbailó
Procurando e destruindo falsos Mc's   
Nocivos como  governantes do nosso país
Minha família quer tudo
Como quem não quer nada
O estilo é livre, ninguém pode pará-la
Nada mais, nada menos é!
Eu to sabendo, Black Alien
Vai rimando, queimando, sobrevivendo
Se é o caso, queimo a casa e me livro do rato
Negozinho, se liga,
Que eu não vou deixar barato
- Então >D2?
- Qualé?
- O que você me conta?
- Eu continuo queimando tudo até a última ponta

               ##   Refrão    ##

Solo: (B,A,F#m,E)

(B,A,F#m,E)
Olhe pra mim, veja as pupilas dilatadas
É a mente trabalhando, eu nao vou te fazer nada
Sinta os efeitos da fumaça sonora e nao se esqueca:
Planet Hemp, fazendo sua cabeça!!!!

########### (Aki para e é só bateria-eu faço beat box) ########### 
M.A.R.C.E.L.O, Marcelo D2, na lata sem dó
Dedo amarelo, enfumacado, e o pensamento longe
Mas eu continuo queimando tudo como Cheech e Chong 
##################################################################

(B,A,F#m,E)
Nao adianta armadilha,mermao, eu nao caio
E muito menos cabeca de pobre é para raio
A mente aguçada, mermao
Eu sei que isso te espanta
Mas eu continuo queimando tudo
Até a ultima ponta

******** Repete Refrão ********

---------------------------------------------------------------------------------------------------------------

Solo
e|--------------------------------------
B|--------------------------------6-5-3-|
g|-2/4-4-4---2/4-4-4---2/4-4-4-2--------|
d|--------------------------------------|
a|--------------------------------------|
E|--------------------------------------/

e|--------------------------------------
B|--------------------------------6-5-3-|
g|-2/4-4-4---2/4-4-4---2/4-4-4-2--------|
d|--------------------------------------|
a|--------------------------------------|
E|--------------------------------------/

e|--------------------------------------
b|-5-3-0-3---5-3-0-3---5-3-0-3--3-6-5-3-|
g|--------------------------------------|
d|--------------------------------------|
a|--------------------------------------|
E|--------------------------------------/

e|--------------------------------------
B|--------------------------------6-5-3-|
g|-2/4-4-4---2/4-4-4---2/4-4-4-2--------|
d|--------------------------------------|
a|--------------------------------------|
E|--------------------------------------/
Composição de Black Alien / D2 / Marcelo D2 / Zé Gonzales
Colaboração e revisão:
  • hugo isquierdo
  • Gabriel Tôrres
  • Marcos felipe
119.616 exibições
    • ½ Tom
    • A
    • Bb
    • B
    • C
    • Db
    • D
    • Eb
    • E
    • F
    • F#
    • G
    • Ab
  • Adicionar à lista

    0 comentários

    Mostrar mais comentários

    Conseguiu tocar?

    3 Tocaram 1 Ainda não

    Grave um vídeo tocando Queimando Tudo e mande pra gente!

    00:00 / 00:00
    outros vídeos desta música
    repetir qualidade Automático
    Outros vídeos desta música
    00:00 / 00:00
    Automático

    Cifra Club Pro

    Aproveite o Cifra Club com benefícios exclusivos e sem anúncios
    7 dias grátis
    Cifra Club Pro
    Aproveite o Cifra Club com benefícios exclusivos e sem anúncios
    7 dias grátis
    OK