Cifra Club

The Anthem

Planetshakers

Cifra: Principal (violão e guitarra)
tom: D
INTRO
E|------------------------------------------------------------|
B|------------------------------------------------------------|
G|-6---6h8-------8/10---8---10---11---11---10--------8--------|   2x
D|-----------6----------------------------------11------------|
A|------------------------------------------------------------|
E|------------------------------------------------------------|
E|------------------------------------------------------------|
B|------------------------------------------------------------|
G|-13---11---10--------10-------------------------------------|   3x
D|----------------13--------11--------------------------------|
A|------------------------------------------------------------|
E|------------------------------------------------------------|
E|------------------------------------------------------------|
B|------------------------------------------------------------|
G|------13---11---10--------10---10/13------------------------|
D|-11------------------13-------------------------------------|
A|------------------------------------------------------------|
E|------------------------------------------------------------|
  Bm   A    D             Em     Bm    A...
Hal-lelu-jah, you have won the victory 
Bm   A    D             Em     Bm     A...
Hal-lelu-jah, you have won it all for me

                 G       Bm   A...
Death could not hold you down        
            Em     Bm   A...
You are the risen King 
          G     Bm A...
Seated in Majesty 
            Em     Bm    A
You are the risen King
00:00 / 00:00
Outros vídeos desta música
Repetir
Outros vídeos desta música
Composição de Henry Seeley / Joth Hunt / Liz Webber
Colaboração e revisão:
  • Nelson Francisco
  • Jackson Almeida
8.588 exibições
    • ½ Tom
    • A
    • Bb
    • B
    • C
    • Db
    • D
    • Eb
    • E
    • F
    • F#
    • G
    • Ab
  • Adicionar à lista

    0 comentários

    Ver todos os comentários

    Entre para oCifra Club PRO

    Tenha acesso a benefícios exclusivos no App e no Site

    • Chega de anúncios

    • Prioridade de compra em lançamentos

    • Mais recursos no app do Afinador

    • Atendimento Prioritário

    • Descontos nos produtos Cifra Club

    • Ajude a produzir mais conteúdo

    00:00 / 00:00

    Cifra Club Pro

    Aproveite o Cifra Club com benefícios exclusivos e sem anúncios
    Cifra Club Pro
    Aproveite o Cifra Club com benefícios exclusivos e sem anúncios
    OK