Cifra Club

Com certeza

Planta e Raiz

Cifra: Principal
exibições 470.282
Tom: C
(intro)

E|------5---------------------------------------5---------------------------
B|-----5--------------------------------------5-----------------------------
G|---------7b-5-----------------------------------7b-5----------------------
D|-7-7-----------7--5-6-7-----5-----5-7b---7-----------7---5-6-7--5-6-7~~~~-
A|------------------------5-7---5-7-----------------------------------------
E|--------------------------------------------------------------------------

E|--------------------------------------------------------------------------
B|--5-5------5-----------------5-5------------------------------------------
G|------7-5----7-5-7-5-7-5-7-5-----7-7--5-5---------------------------------
D|------------------------------------------7-5-7~~~~-----------------------
A|--------------------------------------------------------------------------
E|--------------------------------------------------------------------------

(refrão 2x)
Am
Com certeza,
    Dm
Você já se banhou na queda
    Em
De uma cachoeira
Am
Sentido a sensação
    Dm                 Em
Da sua alma sendo purificada
      Am
Por inteira

Am
O inicio e o fim
         F            G
A noite a madrugada,
Am
A policia e o ladrão
     F
E a planta que não foi
          G
Descriminalizada
Am
Todos querem nossa paz
           F             G
Mas temos Deus a nossa volta
Am
E clamo para ter algemas
F                G
Apenas o nosso amor

Refrão 2x Vezes
Am
Com certeza,
    Dm
Você já se banhou na queda
    Em
De uma cachoeira
Am
Sentido a sensação
    Dm                 Em
Da sua alma sendo purificada
      Am
Por inteira

Am
A ferida que formou
    F            G
Já esta sendo curada
Am
A noite escura se foi
                     F
Levando as trevas e trazendo
G
Luz à nossa estrada
Am
A paz que nos roubaram,
              F           G
Graças a Deus temos de volta
Am
E clamo para ter algemas
F                 G
Apenas o nosso amor

(refrão 2x)
Am
Com certeza,
    Dm
Você já se banhou na queda
    Em
De uma cachoeira
Am
Sentido a sensação
    Dm                 Em
Da sua alma sendo purificada
      Am
Por inteira

   F
Pra purificar
                    G
É só você pensar no bem
                 Am
Você pensar em Deus

 F
Essa é positiva
    F            G
A positiva vibração

Am             ( Dm Em )
Com certeza...   (2ª parte do solo da intro)
   Am           ( Dm Em )
Sentido a sensação...
  Am                            Dm                        Em
Com certeza ohh meu amor...(voce ja se banhou na queda de uma cachoeira)
            Am                  Dm*                Em*            Am
você vai sentir a sensação da sua alma sendo purificada por inteira...

*(bate uma vez e deixa soar...)
Acordes para:
    Colaboração e revisão:
    • Pedro Souza
    • tobias

    0 comentários

      mostrar mais comentários

      Conseguiu tocar?

      36tocaram2ainda não

      Grave um vídeo tocando Com certeza e mande pra gente!

      00:00 / 00:00
      outros vídeos desta música
      repetirqualidadeautomática
      Outro vídeos desta música
        00:00 / 00:00
        automática
        OK