Cifra Club

Aprenda

Te Ver

Planta e Raiz

Tab de baixo: Principal
INTRODUÇÃO
G-------------------4-4-----
D---------------4-6-----6-4---
A-2---4---2---4-------------4-
E---------------------------

G-------------------------
D-------------------------
A-2---2-2-----4-----2-4-6-
E---2-----2-4---2-4-------

G-------------------4---6-4-6/8-6-4--
D---------------4-6---6--------------
A-2---2-2-----4----------------------
E---2-----2-4------------------------


REFRÃO(te ver e não te querer...)
G-------------------------\
D------------------------- \4x
A-2---2-2-----4-----2-4-6- /
E---2-----2-4---2-4-------/


BASE(é como...)
G-----------------------------------\
D-----------------4/6-4------------- \3X
A-2-2---2-----4-4-------6-4-2------- /
E-----2---2/4-----------------4-----/

G-------------------4---6~-6/8-6-4--
D---------------4/6---6-------------
A-2-2---2-----4---------------------
E-----2---2/4-----------------------

---A MÚSICA GIRA EM TORNO DO REFRÃO E DA BASE, SEMPRE QUE ACABA A BASE COMEÇA O REFRÃO, E VICE VERSA.---

...é como ver televisão...
G----4/16------16----------------16----18-16-18/20-18-16-------
D--------------------------16/18----18-------------------18-16-
A-2------------------16/18-------------------------------------
E--------------------------------------------------------------

REPETE O REFRÃO 7VEZES

FINAL:
G-----------------6----
D---------------6------
A-2---2-2-----4--------
E---2-----2-4----------
Composição de Lucas Gabriel
Colaboração e revisão:
  • Marcelo Barce
8.170 exibições

0 comentários

Ver todos os comentários

Conseguiu tocar?

0 Tocaram 0 Ainda não

Grave um vídeo tocando Te Ver e nos envie!

00:00 / 00:00
Outros vídeos desta música
Repetir Qualidade Automático
Outros vídeos desta música
00:00 / 00:00
Automático

Cifra Club Pro

Aproveite o Cifra Club com benefícios exclusivos e sem anúncios
Cifra Club Pro
Aproveite o Cifra Club com benefícios exclusivos e sem anúncios
OK