Cifra Club

Aprenda

Voz Do Coração

Planta e Raiz

Cifra: Principal (violão e guitarra)
tom: D
Intro : B4 A4 G4

(Riff_1):

E|-----------------------------------------------------------------------------
B|------12-----------10--------8----------5--------------12--------15-------12-
G|--7~9----------5~7-------3~5-------------5----------7~9------9~12------7~9---
D|------------------------------------------5----------------------------------
A|-------------------------------------------5---------------------------------
E|--------------------------------------------5--------------------------------
(Nessa última parte onde tem os "5", não se aperta a corda, faça apenas o harmônico).

(Riff_2): (abafado)

          B|-----------12---------12----------8-------8----
          G|---9-9-9-9-----9-9-9-9----5-5-5-5-----5-5------

          B|-----------12---------10----------8-------8--
          G|---9-9-9-9-----7-7-7-7-----5-5-5-5-----5-5---

          B|-----------12---------12----------8-------8----
          G|---9-9-9-9-----9-9-9-9----5-5-5-5-----5-5------

          (sem abafar)

          B|------ 12------- 15--15~12-----
          G|----7~9------9~12--------------


(Riff_3): (faça harmônicos)

B|-------7--
G|---12------

(Riff 4):

B|------------------------------------------------
G|----------------------9--12h11--7---7~9-------
D|--10--10h9h10--12--10---------------------5--

(toca esse Riff_3 quando começa a parte --> "Do futuro nada sabemos").

(Refrão)
B4                         G4
Tudo que era velho se fez novo
B4      A4                      G4
E o ontem, hoje já é futuro irmão
B4       A4                       G4
O presente vivo pra eternizar o amanhã
B4                      A4            G4
Eu vou vivendo ouvindo a voz do coração
B4         A4                        G4
Só vou se for ouvindo a voz do coração

  G       A4            B4
Do futuro nada sabemos
         A4               G4
Mas sabemos da nossa condição
  G                       G4   B4
Também sabemos o que queremos
    A4                G4
É aí que chego a conclusão

REFRÃO
B4       A4                           G4
Eu vou vivendo ouvindo a voz do coração
B4         A4                        G4
Só vou se for ouvindo a voz do coração

Do futuro nada....

REFRÃO
G4       A4                           G4
Eu vou vivendo ouvindo a voz do coração
G4     A4                            G4
Só vou se for ouvindo a voz do coração.
Compositor não encontrado.
Colaboração e revisão:
76.443 exibições
    • ½ Tom
    • A
    • Bb
    • B
    • C
    • Db
    • D
    • Eb
    • E
    • F
    • F#
    • G
    • Ab
  • Adicionar à lista

    0 comentários

    Ver todos os comentários

    Conseguiu tocar?

    1 Tocaram 0 Ainda não

    Grave um vídeo tocando Voz Do Coração e nos envie!

    00:00 / 00:00
    Outros vídeos desta música
    Repetir Qualidade Automático
    Outros vídeos desta música
    00:00 / 00:00
    Automático

    Cifra Club Pro

    Aproveite o Cifra Club com benefícios exclusivos e sem anúncios
    Cifra Club Pro
    Aproveite o Cifra Club com benefícios exclusivos e sem anúncios
    OK